» » »

Earthtone9, Vitriolic Hsf Tabs (ver.1)

Artists:  A B C D E F G H I J K L M N O P Q R S T U V W X Y Z # 

Vitriolic Hsf Tabs (ver.1)

Earthtone9 Tabs
Rating:
0/5 (0 votes)
Vitriolic Hsf lessons Tabs too difficult? Try these video lessons and learn fast
                |----------------------|------------------------|----------------------|-------------------------|
|----------------------|------------------------|----------------------|-------------------------|
|----------------------|------------------------|----------------------|-------------------------| x 6
|----------------------|------------------------|----------------------|-------------------------|
|----------------------|------------------------|----------------------|-------------------------|
|-0-12-12-0-12-12-0-12-|-12-0-12-12-11-11-11-11-|-0-12-12-0-12-12-0-12-|-12-0-12-12-11-11-11-11--|


|----------------|---------------|
|----------------|---------------|
|----------------|---------------| x 8
|----------------|---------------|
|-3-3-3-2--2-3-3-|-3-2--2-3-3-2--|
|-1-1-1-0--0-1-1-|-1-0--0-1-1-0--|


|----------------------|-------------------------|
|----------------------|-------------------------|
|----------------------|-------------------------|
|----------------------|-------------------------|
|----------------------|-------------------------|
|-0-12-12-0-12-12-0-12-|-12-0-12-12-11-11-11-11--|


|----------------------|------------------------|----------------------|-------------------------|
|----------------------|------------------------|----------------------|-------------------------|
|----------------------|------------------------|----------------------|-------------------------| x 2
|----------------------|------------------------|----------------------|-------------------------|
|----------------------|------------------------|----------------------|-------------------------|
|-0-12-12-0-12-12-0-12-|-12-0-12-12-11-11-11-11-|-0-12-12-0-12-12-0-12-|-12-0-12-12-11-11-11-11--|


||-----------------|----------------||
||o----------------|---------------o||
||-----------------|----------------|| x 8
||-----------------|----------------||
||o-3-3-3-2--2-3-3-|-3-2--2-3-3-2--o||
||--1-1-1-0--0-1-1-|-1-0--0-1-1-0---||


||------------------------|---------------------||
||o-----------------------|--------------------o||
||------------------------|---------------------|| x 12
||------------------------|---------------------||
||o-----------------------|-----------2-2-2-2--o||
||--7\-12-0-7\-12-0-7\-12-|-0-7\-12-0-0-0-0-0---||


|-[5]-------|--------|
|-[5]-------|--------|
|-[5]-------|--------|
|-----------|--------|
|-----------|--------|
|-----------|--------|


||-----------------------|------------------------|----------------------|--------------------------||
||o----------------------|------------------------|----------------------|-------------------------o||
||-----------------------|------------------------|----------------------|--------------------------|| x 2
||-----------------------|------------------------|----------------------|--------------------------||
||o----------------------|------------------------|----------------------|-------------------------o||
||--0-12-12-0-12-12-0-12-|-12-0-12-12-11-11-11-11-|-0-12-12-0-12-12-0-12-|-12-0-12-12-11-11-11-11---||


||-----------------|----------------||
||o----------------|---------------o||
||-----------------|----------------|| x 4
||-----------------|----------------||
||o-3-3-3-2--2-3-3-|-3-2--2-3-3-2--o||
||--1-1-1-0--0-1-1-|-1-0--0-1-1-0---||


|-------|
|-------|
|-------|
|-------|
|-2--2--|
|-0--0--|
            

comments powered by Disqus
↑ Back to top | Earthtone9 Tabs for Vitriolic Hsf. Lyrics for acoustic guitar and electric guitar. Tablatures and chords are parodies/interpretations of the original songs. You may use it for private study, scholarship, research or language learning purposes only