» » »

Earthtone9, Veriolic Hsf Bass tabs (ver.1)

Artists:  A B C D E F G H I J K L M N O P Q R S T U V W X Y Z # 

Veriolic Hsf Bass tabs (ver.1)

Earthtone9 Tabs
 Rating:
4/5 (4 votes)
Veriolic Hsf lessons Tabs too difficult? Try these video lessons and learn fast
                BASSLINE FOR VIRIOLIC HSF
As recorded by earthtone9
(From the 1998 LP recording LO-DEF(INITION) DISCORD)

Words by Karl Middleton Music by earthtone9



  M.M. = 200
|---------||-----------------------|-------------------------||
|---------||o----------------------|------------------------o||
|---------||o----------------------|------------------------o||
|---------||--0-12-12-0-12-12-0-12-|-12-0-12-0-11-11-11-11---||


||--------------------|-------------------|-------------------|---------------------||
||o-------------------|-------------------|-------------------|--------------------o||
||o-------------------|-------------------|-------------------|--------------------o||
||--1-1-1-0-(0)-0-1-1-|-1-0-(0)-0-1-1-1-1-|-1-1-1-0-(0)-0-1-1-|-1-0-(0)-0-1-1-1-1---||


|---------||-----------------------|-------------------------||
|---------||o----------------------|------------------------o||
|---------||o----------------------|------------------------o||
|---------||--0-12-12-0-12-12-0-12-|-12-0-12-0-11-11-11-11---||


||--------------------|-------------------|-------------------|---------------------||
||o-------------------|-------------------|-------------------|--------------------o||
||o-------------------|-------------------|-------------------|--------------------o||
||--1-1-1-0-(0)-0-1-1-|-1-0-(0)-0-1-1-1-1-|-1-1-1-0-(0)-0-1-1-|-1-0-(0)-0-1-1-1-1---||


||----------|-------------|---------|---------------||
||o---------|-------------|---------|--------------o||
||o---------|-------------|---------|--------------o||
||----------|-----0-1-2-3-|---------|-----0-1-2-3---||


||--------------------------|---------------------|-------------------------|-----------------------||
||o-------------------------|---------------------|-------------------------|----------------------o||
||o-------------------------|---------------------|-------------------------|----------------------o||
||--0-10\-12-0-10/-12-0-10/-|-12-0-10/-12-0-1-2-3-|-0-10\-12-0-10/-12-0-10/-|-12-0-10/-12-0-1-2-3---||


|---------|---------||-----------------------|-------------------------||
|---------|---------||o----------------------|------------------------o||
|---------|---------||o----------------------|------------------------o||
|---------|---------||--0-12-12-0-12-12-0-12-|-12-0-12-0-11-11-11-11---||


||--------------------|-------------------|-------------------|---------------------||
||o-------------------|-------------------|-------------------|--------------------o||
||o-------------------|-------------------|-------------------|--------------------o||
||--1-1-1-0-(0)-0-1-1-|-1-0-(0)-0-1-1-1-1-|-1-1-1-0-(0)-0-1-1-|-1-0-(0)-0-1-1-1-1---||



Legend
------

h = hammer-on; p = pull-off; b = bend; r = bend release; / = slide up/down; [5] 
= nat. harmonic; <5> = art. harmonic; ~ = vibrato; tr = trill; T = tap; TP = 
trem. picking; PM = palm muting; | = bar; || = double bar; ||o = repeat start; 
*|| = repeat end; *| = double bar (end); : = bar (freetime); d = tremolo bar 
dive; u = tremolo bar up; = = hold (bend or tremolo bar)
            
Submit corrections

comments powered by Disqus
↑ Back to top | Earthtone9 Bass for Veriolic Hsf. Lyrics for acoustic guitar and electric guitar. Tablatures and chords are parodies/interpretations of the original songs. You may use it for private study, scholarship, research or language learning purposes only