» » »

Serpentine Placement Bass tabs (ver.1)

Artists:  A B C D E F G H I J K L M N O P Q R S T U V W X Y Z # 

Serpentine Placement Bass tabs (ver.1)

Earthtone9
Rating:
0/5 (0 votes)

Tabs too difficult? Try these video lessons and learn fast.
                BASSLINE FOR SERPENTINE PLACEMENT
As recorded by earthtone9
(From the 1999 LP recording OFF KILTER ENHANCEMENT)

Words by Karl Middleton Music by earthtone9


  M.M. = 155
|------------|---------|------------|---
|------------|---------|------------|---
|------------|---------|------------|---
|-0---0---0--|---------|-0---0---0--|---


|------------|---------|------------|--------------|
|------------|---------|------------|--------------|
|------------|---------|------------|--------------|
|-0---0---0--|---------|-0---0---0--|--1-1-1-1-1---|


||------------------|--------------------|-----------------|----------------------|
||o-----------------|--------------------|-----------------|-------6-6-7-6--------|
||o-----------------|--------------------|-----------------|---5-7---------7-(7)--|
||--1-0-0-1-0-0-1-0-|-0-1\-5-(5)-5-4-4-0-|-1-0-0-1-0-0-1-0-|-0--------------------|


|-----------------|--------------------|-----------------|----------------------------||
|-----------------|--------------------|-----------------|---------------------------o||
|-----------------|--------------------|-----------------|-----0\-7-(7)-5-(5)--------o||
|-1-0-0-1-0-0-1-0-|-0-1\-5-(5)-5-4-4-0-|-1-0-0-1-0-0-1-0-|-(0)----------------1-(1)---||


||----------------------|-----------------------|-------------------|-------------------------||
||o-2-2-(2)-3-2-(2)-0-2-|-(2)-0-2-(2)-2-2-2-(2)-|-------------------|------------------------o||
||o---------------------|-----------------------|-------------------|------------------------o||
||----------------------|-----------------------|-3-2-(2)-3-2-2-3-2-|-(2)-3-2-(2)-3-3-3-(3)---||


||------------------|--------------------|-----------------|----------------------|
||o-----------------|--------------------|-----------------|-------6-6-7-6--------|
||o-----------------|--------------------|-----------------|---5-7---------7-(7)--|
||--1-0-0-1-0-0-1-0-|-0-1\-5-(5)-5-4-4-0-|-1-0-0-1-0-0-1-0-|-0--------------------|


|-----------------|--------------------|-----------------|----------------------------||
|-----------------|--------------------|-----------------|---------------------------o||
|-----------------|--------------------|-----------------|-----0\-7-(7)-5-(5)--------o||
|-1-0-0-1-0-0-1-0-|-0-1\-5-(5)-5-4-4-0-|-1-0-0-1-0-0-1-0-|-(0)----------------1-(1)---||


||----------------------|-----------------------|-------------------|-------------------------||
||o-2-2-(2)-3-2-(2)-0-2-|-(2)-0-2-(2)-2-2-2-(2)-|-------------------|------------------------o||
||o---------------------|-----------------------|-------------------|------------------------o||
||----------------------|-----------------------|-3-2-(2)-3-2-2-3-2-|-(2)-3-2-(2)-3-3-3-(3)---||


    PM------------------------------------------------------------------------------------|
||----------------------|-----------------------|---------------------|-------------------------||
||o-2-2-(2)-3-2-(2)-0-2-|-(2)-0-2-(2)-2-2-2-(2)-|---------------------|------------------------o||
||o---------------------|-----------------------|---------------------|------------------------o||
||----------------------|-----------------------|-3-2-(2)-3-2-(2)-3-2-|-(2)-3-2-(2)-3-3-3-(3)---||


||----------------------|-------------------------|---------------------|--------------------------|
||o-----------------0-2-|-(2)-2-(2)-2-(2)-2-(2)-2-|-----------------2-3-|-(3)-3-(3)-3-(3)-3-(3)-3--|
||o---------------------|-------------------------|---------------------|--------------------------|
||--0-(0)-(0)-0-0-0-----|-------------------------|-1-(1)-(1)-1-1-1-----|--------------------------|


|---------------------|-------------------------|---------------------|---------------------||
|-----------------0-2-|-(2)-2-(2)-2-(2)-2-(2)-2-|---------------------|--------------------o||
|---------------------|-------------------------|---------------------|--------------------o||
|-0-(0)-(0)-0-0-0-----|-------------------------|-1-(1)-(1)-1-1-1-1-1-|-3-3-3-3-3-3-3-(3)---||


||------------------|--------------------|-----------------|----------------------|
||o-----------------|--------------------|-----------------|-------6-6-7-6--------|
||o-----------------|--------------------|-----------------|---5-7---------7-(7)--|
||--1-0-0-1-0-0-1-0-|-0-1\-5-(5)-5-4-4-0-|-1-0-0-1-0-0-1-0-|-0--------------------|


|-----------------|--------------------|-----------------|----------------------------||
|-----------------|--------------------|-----------------|---------------------------o||
|-----------------|--------------------|-----------------|-----0\-7-(7)-5-(5)--------o||
|-1-0-0-1-0-0-1-0-|-0-1\-5-(5)-5-4-4-0-|-1-0-0-1-0-0-1-0-|-(0)----------------1-(1)---||


||----------------------|-----------------------|-------------------|-------------------------||
||o-2-2-(2)-3-2-(2)-0-2-|-(2)-0-2-(2)-2-2-2-(2)-|-------------------|------------------------o||
||o---------------------|-----------------------|-------------------|------------------------o||
||----------------------|-----------------------|-3-2-(2)-3-2-2-3-2-|-(2)-3-2-(2)-3-3-3-(3)---||


|---------------------|-------------------------|---------------------|--------------------
|-----------------0-2-|-(2)-2-(2)-2-(2)-2-(2)-2-|---------------------|--------------------
|---------------------|-------------------------|---------------------|--------------------
|-0-(0)-(0)-0-0-0-----|-------------------------|-1-(1)-(1)-1-1-1-1-1-|-3-3-3-3-3-3-3-(3)--


|---------------------|-------------------------|---------------------|--------------------*|
|-----------------0-2-|-(2)-2-(2)-2-(2)-2-(2)-2-|---------------------|--------------------*|
|---------------------|-------------------------|---------------------|--------------------*|
|-0-(0)-(0)-0-0-0-----|-------------------------|-1-(1)-(1)-1-1-1-1-1-|-3-3-3-3-3-3-3-(3)--*|



Legend
------

h = hammer-on; p = pull-off; b = bend; r = bend release; / = slide up/down; [5] 
= nat. harmonic; <5> = art. harmonic; ~ = vibrato; tr = trill; T = tap; TP = 
trem. picking; PM = palm muting; | = bar; || = double bar; ||o = repeat start; 
*|| = repeat end; *| = double bar (end); : = bar (freetime); d = tremolo bar 
dive; u = tremolo bar up; = = hold (bend or tremolo bar)
            
Tabs too difficult? Try these video lessons and learn fast.




comments powered by Disqus
↑ Back to top | Tablatures and chords are parodies/interpretations of the original songs. You may use it for private study, scholarship, research or language learning purposes only