» » »

Earthtone9, Nameless (The 4th And The 10th) Bass tabs (ver.1)

Artists:  A B C D E F G H I J K L M N O P Q R S T U V W X Y Z # 

Nameless (The 4th And The 10th) Bass tabs (ver.1)

Earthtone9 Tabs
 Rating:
4/5 (4 votes)
Nameless (The 4th And The 10th) lessons Tabs too difficult? Try these video lessons and learn fast
                BASSLINE FOR NAMELESS (THE 4TH AND THE 10TH)
As recorded by earthtone9
(From the 1999 LP recording OFF KILTER ENHANCEMENT)

Words by Karl Middleton Music by earthtone9



  M.M. = 120
|---|
|---|
|---|
|---|


|-----|---------|----------|
|-----|---------|----------|
|-----|---------|----------|
|-----|---------|-3-3-3-3--|


||------------------|-----------------|-----------------|-------------------||
||o-----------------|-----------------|-----------------|------------------o||
||o-----------------|-----------------|-----------------|------------------o||
||--0-0-0-0-0-0-0-0-|-0-0-0-0-0-0-0-1-|-0-0-0-0-0-0-0-0-|-0-0-0-0-3-3-3-3---||


||----------------------|-----------------------------|---------------------|-------------------------------||
||o---------------------|-----------------------------|---------------------|------------------------------o||
||o-7-5-(5)-5-5-8-(8)-8-|-8---------------------------|-7-5-(5)-5-5-8-(8)-8-|-8----------------------------o||
||----------------------|---6-(6)-(6)-(6)-(6)-(6)-(6)-|---------------------|---6-(6)-(6)-(6)-(6)-(6)-(6)---||


||------------------|-----------------|-----------------|-------------------||
||o-----------------|-----------------|-----------------|------------------o||
||o-----------------|-----------------|-----------------|------------------o||
||--0-0-0-0-0-0-0-1-|-1-1-1-1-1-1-1-3-|-3-3-3-3-3-3-3-4-|-4-4-4-4-4-4-4-0---||


||------------------|-----------------|-----------------|-------------------||
||o-----------------|-----------------|-----------------|------------------o||
||o-----------------|-----------------|-----------------|------------------o||
||--0-0-0-0-0-0-0-0-|-0-0-0-0-0-0-0-1-|-0-0-0-0-0-0-0-0-|-0-0-0-0-3-3-3-3---||


||----------------------|-----------------------------|---------------------|-------------------------------||
||o---------------------|-----------------------------|---------------------|------------------------------o||
||o-7-5-(5)-5-5-8-(8)-8-|-8---------------------------|-7-5-(5)-5-5-8-(8)-8-|-8----------------------------o||
||----------------------|---6-(6)-(6)-(6)-(6)-(6)-(6)-|---------------------|---6-(6)-(6)-(6)-(6)-(6)-(6)---||


||------------------|-----------------|-----------------|-------------------||
||o-----------------|-----------------|-----------------|------------------o||
||o-----------------|-----------------|-----------------|------------------o||
||--0-0-0-0-0-0-0-1-|-1-1-1-1-1-1-1-3-|-3-3-3-3-3-3-3-4-|-4-4-4-4-4-4-4-0---||


|-----------------|-----------------|-----------------|------------------|
|-----------------|-----------------|-----------------|------------------|
|-----------------|-----------------|-----------------|------------------|
|-4-4-4-4-4-4-4-4-|-4-4-4-4-4-4-4-4-|-4-4-4-4-4-4-4-4-|-4-6-6-6-6-6-6-6--|


||--------------------|-----------------------|-------------------|-----------------------||
||o-------------------|-----------------------|-------------------|----------------------o||
||o-5-7-7-5-7-(7)-5-7-|-(7)-5-7-(7)-5-7-7-(7)-|-5-7-7-5-7-(7)-5-7-|-(7)-5-7-5------------o||
||--------------------|-----------------------|-------------------|-----------6-6-(6)-6---||


|-----------------|-----------------|-----------------|------------------|
|-----------------|-----------------|-----------------|------------------|
|-----------------|-----------------|-----------------|------------------|
|-6-6-6-6-6-6-6-6-|-6-6-6-6-6-6-6-6-|-6-6-6-6-6-6-6-6-|-6-8-8-8-8-8-8-8--|


|-----------------|-----------------|-----------------|-----------------|------
|-----------------|-----------------|-----------------|-----------------|------
|-----------------|-----------------|-----------------|-----------------|------
|-8-6-6-6-6-6-6-6-|-6-6-6-6-6-6-6-6-|-6-6-6-6-6-6-6-6-|-6-8-8-8-8-8-8-8-|-8-6--


|-----------------|-----------------|-----------------|-----------------|----------|
|-----------------|-----------------|-----------------|-----------------|----------|
|-----------------|-----------------|-----------------|-----------------|----------|
|-6-6-6-6-6-6-6-6-|-6-6-6-6-6-6-6-6-|-6-6-6-6-6-6-6-8-|-8-8-8-8-8-8-8-6-|-6-6-6-6--|


|-----------------|-----------------|-----------------|------------------|
|-----------------|-----------------|-----------------|------------------|
|-----------------|-----------------|-----------------|------------------|
|-6-6-6-6-6-6-6-6-|-6-6-6-6-6-6-6-6-|-6-6-6-8-8-8-8-8-|-8-8-3-3-3-3-3-3--|


||--------------------------------|---------------------|-------------------------------|-----------------------||
||o-------------------------------|---------------------|-------------------------------|----------------------o||
||o-------------------------------|---------------------|-------------------------------|----------------------o||
||--(3)-0-(0)-(0)-(0)-(0)-(0)-(0)-|-(0)-(0)-3-3-3-3-3-5-|-(5)-0-(0)-(0)-(0)-(0)-(0)-(0)-|-(0)-(0)-3-3-3-3-3-3---||


|-------------------------------|---------------------|-------------------------------|----------------------
|-------------------------------|---------------------|-------------------------------|----------------------
|-------------------------------|---------------------|-------------------------------|----------------------
|-(3)-0-(0)-(0)-(0)-(0)-(0)-(0)-|-(0)-(0)-3-3-3-3-3-5-|-(5)-0-(0)-(0)-(0)-(0)-(0)-(0)-|-(0)-(0)-3-3-3-3-3-3--


|-----------------------------|---------------------|-------------------------------|----------------------------------
|-----------------------------|---------------------|-------------------------------|----------------------------------
|-----------------------------|---------------------|-------------------------------|----------------------------------
|-3-0-(0)-(0)-(0)-(0)-(0)-(0)-|-(0)-(0)-3-3-3-3-3-5-|-(5)-0-(0)-(0)-(0)-(0)-(0)-(0)-|-(0)-(0)-(0)-(0)-(0)-(0)-(0)-(0)--


|------------|------------|------------|------------|------------|------|
|------------|------------|------------|------------|------------|------|
|------------|------------|------------|------------|------------|------|
|-(0)--------|-(0)--------|-(0)--------|-(0)--------|-(0)--------|-(0)--|


||------------------|-----------------|-----------------|-------------------||
||o-----------------|-----------------|-----------------|------------------o||
||o-----------------|-----------------|-----------------|------------------o||
||--0-0-0-0-0-0-0-0-|-0-0-0-0-0-0-0-1-|-0-0-0-0-0-0-0-0-|-0-0-0-0-3-3-3-3---||


||----------------------|-----------------------------|---------------------|-------------------------------||
||o---------------------|-----------------------------|---------------------|------------------------------o||
||o-7-5-(5)-5-5-8-(8)-8-|-8---------------------------|-7-5-(5)-5-5-8-(8)-8-|-8----------------------------o||
||----------------------|---6-(6)-(6)-(6)-(6)-(6)-(6)-|---------------------|---6-(6)-(6)-(6)-(6)-(6)-(6)---||



Legend
------

h = hammer-on; p = pull-off; b = bend; r = bend release; / = slide up/down; [5] 
= nat. harmonic; <5> = art. harmonic; ~ = vibrato; tr = trill; T = tap; TP = 
trem. picking; PM = palm muting; | = bar; || = double bar; ||o = repeat start; 
*|| = repeat end; *| = double bar (end); : = bar (freetime); d = tremolo bar 
dive; u = tremolo bar up; = = hold (bend or tremolo bar)
            
Submit corrections

comments powered by Disqus
↑ Back to top | Earthtone9 Bass for Nameless (The 4th And The 10th). Lyrics for acoustic guitar and electric guitar. Tablatures and chords are parodies/interpretations of the original songs. You may use it for private study, scholarship, research or language learning purposes only