» » »

Earthtone9, Leadfoot Tabs (ver.1)

Artists:  A B C D E F G H I J K L M N O P Q R S T U V W X Y Z # 

Leadfoot Tabs (ver.1)

Earthtone9 Tabs
 Rating:
4/5 (4 votes)
Leadfoot lessons Tabs too difficult? Try these video lessons and learn fast
1
                
-|------------------------------------------------|-------------|-------------
-|------------------------------------------------|-------------|-------------
-|------------------------------------------------|-------------|-------------
-|------------------------------------------------|-------------|-------------
-|--2222--5-7--2222--5-8--22--3-5-----------------|-------------|-------------
-|--0000--3-5--0000--3-6--00--1-3--0000--3-5--000-|--5b6r5v-----|--5/15v------
     intro/verse riff                                1,3,4th       2nd        

-|-----------3--3------|--------------------|------------------|--------------
-|-----------5----5----|--------------------|------------------|--------------
-|--4--9-----5------5--|--------------------|------------------|--------------
-|--2--8--8--3---------|--22-22-22-2-222----|66-66-66-6-6-6655-|-333-3-333-3--
-|--2--7--7--3---------|--22-22-22-2-222/8v-|55-55-55-5-5-5544-|-333-3-333-3--
-|--0-----6------------|--00-00-00-0-000----|44-44-44-4-4-4433-|-111-1-111-1--
     pre-chorus           chorus              1st & 3rd          2nd & 4th    

-------|----------------------------------------------------------------------
-------|----------------------------------------------------------------------
-5555--|-10-------------------------------------------------------------------
-5555--|--9-------------------------------------------------------------------
-3333--|--8-------------------------------------------------------------------
-------|----------------------------------------------------------------------
          pre-solo chord
            
Submit corrections

comments powered by Disqus
↑ Back to top | Earthtone9 Tabs for Leadfoot. Lyrics for acoustic guitar and electric guitar. 1 Tablatures and chords are parodies/interpretations of the original songs. You may use it for private study, scholarship, research or language learning purposes only