» » »

Earth Crisis, Wither Tabs (ver.1)

Artists:  A B C D E F G H I J K L M N O P Q R S T U V W X Y Z # 

Wither Tabs (ver.1)

Earth Crisis Tabs
Rating:
0/5 (0 votes)
Wither lessons Tabs too difficult? Try these video lessons and learn fast
                
Mail me with any corrections or comments at




Tune down the guitar to drop-D



Earth Crisis




pm=palm mute



Guitar riff 1

D---8------7--------------8------10----12---

A---6------5------0-------6------8----10----

D-----------------0--------------------------



Last time

D---8------7-------------8------5----7---

A---6------5------0------6------3----5---

D-----------------0-----------------------



Guitar riff 2

D-----------------------5---7-----8-8-8-8-7-----------------------8-8-8-8-7------------------------

A---1----0----0----1----3---5-----6-6-6-6-5--0-0-0-0-0-0-0-0-0-0--6-6-6-6-5----0---0-0-0-0-0-0---

D---1---------0----1-------------------------0-0-0-0-0-0-0-0-0-0---------------0---0-0-0-0-0-0---

                                             pm.................              pm..............



Guitar riff 3

G---5-5-5-6-6-6-6-6-3/8--8-8-8-8-8-8---

D--------------------------------------

A---3-3-3-4-4-4-4-4-1/6--6-6-6-6-6-6---

D--------------------------------------



Guitar riff 4

D--------------------------------5-5-5-------------------------1/0-------

A---1-1-0-0---0--0--0--0--0--0---3-3-3--3--3--3--3--3---0-1--------------

D---1-1-1-1---1--1--1--1--1--1----------3--3--3--3--3---0-1--------3/5---

                                                        pm.



Guitar riff 5

A---3--3--5--0--00--0--003--00--0--001--00--0--003--3--5--0--00--0--005--00--0--006---0-1-0---

D---3--3--5--0--00--0--003--00--0--001--00--0--003--3--5--0--00--0--005--00--0--006---0-1-0---

                pm     pm   pm     pm   pm     pm            pm     pm   pm     pm    pm....



Lead guitar 

E-----------------------------------------------------------------------------------------------------------

B-----------------------------------------------------------------------------------------------------------

G---------14-------14---14-------14---14-------14---14--------------13-------13--------13--12-------12------

D---/15--------15--15--------15--15--------15--15--------15----12-------12--------12------------12------12--

A-----------------------------------------------------------------------------------------------------------

D-----------------------------------------------------------------------------------------------------------



E-------------------------------------------------------------------------------------------------------------13--18--

B----------------------------------------------------------------------------------------------------------11---------

G----------14---------14^-------14--13^-------13--12^-------12------------13-----------13------13------13-------------

D---/15---------15----------15-------------15-------------12-------12--12-------12--12------12------12----------------

A---------------------------------------------------------------------------------------------------------------------

D---------------------------------------------------------------------------------------------------------------------



Guitar riff 6

D-------------3----------------

A---1/3---0---1---2--3--3--4---

D---1/3---0-------2--3--3--4---  

          pm      pm........



Mail me for the the song structure.
            
Submit corrections

comments powered by Disqus
↑ Back to top | Earth Crisis Tabs for Wither. Lyrics for acoustic guitar and electric guitar. Tablatures and chords are parodies/interpretations of the original songs. You may use it for private study, scholarship, research or language learning purposes only