» » »

Earth Crisis, Unseen Holocaust Tabs (ver.1)

Artists:  A B C D E F G H I J K L M N O P Q R S T U V W X Y Z # 

Unseen Holocaust Tabs (ver.1)

Earth Crisis Tabs
 Rating:
4/5 (4 votes)
Unseen Holocaust lessons Tabs too difficult? Try these video lessons and learn fast
1
                Tuning: Normal (EADGBe)



p = palm mute

b = bend



Riff 1:

D --7--------------7--------------

A --5-4-2-2-2------5-4-2-2-2------

E ----2-0-0-0-(3)----2-0-0-0-(1)--

          p p  b         p p  b



Riff 2 guitar #1:

A ------2/3---2/3---2/3---5-2/3--------2/3---2/3---2/3---5---5/7--

E --0-0-----0-----0-----0----------0-0-----0-----0-----0---0------

    p p     p     p     p          p p     p     p     p   p



Riff 2 guitar #2:

D -----4--7--5--7--

A --2--2--5--3--5--

E --0--------------



Riff 3:

D ---------------4-5--

A --2-2-2--2-3-2-2-3--

E --0-0-0--0-1-0------

    p p p  p p p
            
Submit corrections

comments powered by Disqus
↑ Back to top | Earth Crisis Tabs for Unseen Holocaust. Lyrics for acoustic guitar and electric guitar. 1 Tablatures and chords are parodies/interpretations of the original songs. You may use it for private study, scholarship, research or language learning purposes only