» » »

Earth Crisis, Ultramilitancs Tabs (ver.1)

Artists:  A B C D E F G H I J K L M N O P Q R S T U V W X Y Z # 

Ultramilitancs Tabs (ver.1)

Earth Crisis Tabs
 Rating:
4/5 (4 votes)
Ultramilitancs lessons Tabs too difficult? Try these video lessons and learn fast
                Earth Crisis






Tune to dropped-D

()=palm mute

\=slide down

x=muted string

h=hammer-on



Intro riff:



G|-----------------------------------------------|

D|-----------------------------------------------|

A|-0-(0)-1-1-1-----------------------------------|

E|-0-(0)-1-1-1--(0-0-2-1--0-0-4-3--0-0-3-2--0-0)-|





Verse riff:



G|--------------------------------------|

D|--------------------------------------|

A|-2-(0)-2-3-2-(0)-1--(0-0--0-0-0--0-0)-|

E|-2-(0)-2-3-2-(0)-1--(0-0--0-0-0--0-0)-|



G|--------------------------------------|

D|--------------------------------------|

A|-2-(0)-2-3-2-(0)-1--(0-0--0-0-0-0)-5\-|

E|-2-(0)-2-3-2-(0)-1--(0-0--0-0-0-0)-5\-|





Pre-chorus riff:



G|-7-7-(7)-7-(7)-7-(7)--6-6-(6)-6-(6)-6-(6)-|

D|-x-x-(x)-x-(x)-x-(x)--x-x-(x)-x-(x)-x-(x)-|

A|-5-5-(5)-5-(5)-5-(5)--4-4-(4)-4-(4)-4-(4)-|

E|------------------------------------------|



G|---------------------------------------------------|

D|---------------------------------------------------|

A|-3-3-(3)-3-(3)-3-(3)--(0-0--0-0-0-0--0-0--0-0-0-0)-|

E|-3-3-(3)-3-(3)-3-(3)--(0-0--0-0-0-0--0-0--0-0-0-0)-|





Chorus riff:



G|-7---11-10-|-6-------------------------------|

D|-x----x--x-|-x-------------------------------|

A|-5----9--8-|-4--(0-0--0-0-0-0--0-0--0-0-0-0)-|

E|-----------|----(0-0--0-0-0-0--0-0--0-0-0-0)-|





Verse Riff #2:



G|---------------------|-----------------|

D|---------------------|-----------------|

A|-6-6\--(0-0)-7-5-4-6-|-6-6\--(0-0)-7-0-|

E|-6-6\--(0-0)-7-6-4-6-|-6-6\--(0-0)-7-0-|



Breakdown/Ending riff: (Now this war...has two sides!)



G|----------------------------------------------------|

D|----------------------------------------------------|

A|-0-(0-0)-0-(0)-0-(0)-0-(0-0--0-0-0-0--1-1--1-1-1-1)-|

E|-0-(0-0)-0-(0)-0-(0)-0-(0-0--0-0-0-0--1-1--1-1-1-1)-|



This riff as part of ending riff only:

G|----------------------------------------------------|

D|----------------------------------------------------|

A|-0-(0-0)-0-(0)-0-(0)-0-(1-1--1-1-1-1--2-2--2-2-2-2)-|

E|-0-(0-0)-0-(0)-0-(0)-0-(1-1--1-1-1-1--2-2--2-2-2-2)-|





This riff done only once, right before the pause:

(comes right before the above 2 riffs)



			       WRECK!

e|----------------------|-0-|

B|----------------------|-0-|

G|----------------------|-0-|

D|--------------------3-|-0-|

A|-2-(0)-2-3-2-(0)-1--1-|-0-|

E|-2-(0)-2-3-2-(0)-1----|-1-|





Guitar 2 During Ending:



e|---------|

B|--3h4--3-|

G|---------|
            
Submit corrections

comments powered by Disqus
↑ Back to top | Earth Crisis Tabs for Ultramilitancs. Lyrics for acoustic guitar and electric guitar. Tablatures and chords are parodies/interpretations of the original songs. You may use it for private study, scholarship, research or language learning purposes only