» » »

Earth Crisis, The Order That Shall Be Tabs (ver.1)

Artists:  A B C D E F G H I J K L M N O P Q R S T U V W X Y Z # 

The Order That Shall Be Tabs (ver.1)

Earth Crisis Tabs
 Rating:
4/5 (4 votes)
The Order That Shall Be lessons Tabs too difficult? Try these video lessons and learn fast
                

Mail me with any corrections or comments at




Tune down the guitar to Drop-D



Earth crisis

The order that shall be



pm=palm mute

/=slide

p=pull off

h=hammer on



Guitar riff 1 Pretty slow!!!

A---1p0---------0--------1p0----------0--------1p0---------0--------1p0----------0--0--0--0--0--0------

D--------3------0-------------3-------0-------------3------0-------------3-------0--0--0--0--0--0------

                                                                                 pm.....................



Guitar 2 riff 1

E-------------------------------------------------

B-------------------------------------------------

G------3--2-----3--2-----3--2-----2-----3--2------

D---3--------3--------3--------3-----3--------3---

A-------------------------------------------------

D-------------------------------------------------

X3 Then:

E-----------------------------------------------

B-----------------------------------------------

G------3--2-----2--3-----2--3-----2/3--3/5--5---

D---3--------3--------3--------3----------------

A-----------------------------------------------

D-----------------------------------------------

                                          



Guitar2 riff 2

G---7/10---10/9---9--9--3--3--3---

D---------------------------------

A---5/8---8/7---7--7--1--1--1-----

D---------------------------------



G---7/10---10/9---9--9--12--12--12---

D------------------------------------

A---5/8---8/7---7--7--10--10--10-----

D------------------------------------



G---7/10---10/9---9--9--3--3--3---

D---------------------------------

A---5/8---8/7---7--7--1--1--1-----

D---------------------------------



Guitar riff 2

A---8-7-3-0--0-0--0--0-0--0--0-0---

D---8-7-3-0--0-0--0--0-0--0--0-0---



Guitar riff 3

D---3p2-------------------

A---1p0-3p0---0---0---0---

D-------3p0---0---0---0---



Guitar 2 riff 3

D---3p2---------------------

A---1p0-3p0---0-0-0-0-0-0---

D-------3p0---0-0-0-0-0-0---



Guitar riff4

D--------------------3-----3---3-2-----

A---0-0--7-0-5--0-0--1-0-0-1-0-1-0-3---

D---0-0--7-0-5--0-0----0-0---0-----3---

    pm.   pm    pm.    pm.   pm



Guitar solo

E----------------------------------------------------------------------------------------------------------------

B---------5--3------------------------------------------------------5-----5--5h6p5-------------------------------

G---------------4----------------------------------------5----5-6-7----------------6h7p6-------------------------

D---5--4-----------3--2-------5---------------3----3-5-6---------------------------------7h8p7-5h6p5-3----6------

A---------------------------------3-----3-5-6----------------------------------------------------------------5---

D------------------------------------------------------------------------------------------------------------0---



Mail me for the the song structure.
            
Submit corrections

comments powered by Disqus
↑ Back to top | Earth Crisis Tabs for The Order That Shall Be. Lyrics for acoustic guitar and electric guitar. Tablatures and chords are parodies/interpretations of the original songs. You may use it for private study, scholarship, research or language learning purposes only