» » »

The Discipline Tabs (ver.1)

Artists:  A B C D E F G H I J K L M N O P Q R S T U V W X Y Z # 

The Discipline Tabs (ver.1)

Earth Crisis
Rating:
0/5 (0 votes)
Tabs too difficult? Try these video lessons and learn fast.
                
Mail me with any corrections or comments at




This is the only song on Destroy the machines that are tuned "normal".



Earth Crisis




pm=palm mute

()=Guitar #2



Guitar riff1

A---2----2-2-----2----2-2-2---

E---3----0-0-----3----0-0-0---

         pm.          pm...



Guitar riff2

G----------4--5--7--7----7-7-7-7--5--4----------------------------------

D----------------------------------------------------------------6--5---

A---2------2--3--5--5----5-5-5-5--3--2---2-3-2-2-3-2-3-2-2-3-2-2-4--3---

E---0------------------------------------0-1-0-0-1-0-1-0-0-1-0-0-4--3---

                                         pm.....................



Guitar riff3

G-----------------------------------------------------

D---8/9--9--10----------------------------------------

A---6/7--7--8---5---2-2-2-2-2-2-2-2-2-2-2-2-2-2-2-2---

E---6/7--7--8---3---0-0-0-0-0-0-0-0-0-0-0-0-0-0-0-0---

                    pm..............................



Guitar riff4

D------------4--------8-----------------------------------

A---2--------2--------6---------2-2-2---2-2-2---2-2-2-2---

E---0--------2--------6---------0-0-0---0-0-0---0-0-0-0---

                                pm.....................



Guitar riff5

D------------------------------------------------7-------------------------------------

A---------2--1-----------------2-2---(2-2)----2--5--8--------------2--1----------------

E---0--3---------0--3--2--1----0-0---(0-0)----0--5--6--------0--3---------0--3--2--1---

                              pm..   (pm.)    pm 



Guitarr riff6

A---2--------6---8----3-2--3-2----6-5--3-2---

E---0--------4---6----1-0--1-0----4-3--1-0---

                     pm....................

Guitar riff7

D-------------3----------------------------------------------3------------------------------

A---2---2-2---1---2-----3-2--5---------------------2---2-2---1---2-----3-2--5-----3--5--3---

E---0---0-0-------0-----1-0--3---------------------0---0-0-------0-----1-0--3-----1--3--1---

       pm..            pm..                           pm..            pm..       pm...



Mail me for the the song structure.
            
Tabs too difficult? Try these video lessons and learn fast.


comments powered by Disqus
↑ Back to top | Tablatures and chords are parodies/interpretations of the original songs. You may use it for private study, scholarship, research or language learning purposes only