» » »

Earth Crisis, Sunshine Of Your Love Tabs (ver.1)

Artists:  A B C D E F G H I J K L M N O P Q R S T U V W X Y Z # 

Sunshine Of Your Love Tabs (ver.1)

Earth Crisis Tabs
 Rating:
4/5 (4 votes)
Sunshine Of Your Love lessons Tabs too difficult? Try these video lessons and learn fast
1
                originally by cream

covered by Earth Crisis on "The Oath That Keeps Me Free"




intro/main riff

e--------------------------

b--------------------------

g--------------------------

d--7-7-5-7-----------------

a--5-5-3-5-7-6-5--0-3-0----

d----------7-6-5--0-3-0----



second part

e-------------------------------

b-------------------------------

g-------------------------------

d--10-10-8-10-12-11-10----8-----

a--10-10-8-10----------10---10--

d-------------------------------



third riff

e----------------------

b----------------------

g----------------------

d----------------------

a--7-7---10-10-5-5-----

d--7-7---10-10-5-5-----



ending to third riff

e--------------

b--------------

g--------------

d--------------

a--5-5-5-5-----

d--5-5-5-5-----



i don't know the solo. just listen to the song for the order
            
Submit corrections

comments powered by Disqus
↑ Back to top | Earth Crisis Tabs for Sunshine Of Your Love. Lyrics for acoustic guitar and electric guitar. 1 Tablatures and chords are parodies/interpretations of the original songs. You may use it for private study, scholarship, research or language learning purposes only