» » »

Stand By Tabs (ver.1)

Artists:  A B C D E F G H I J K L M N O P Q R S T U V W X Y Z # 

Stand By Tabs (ver.1)

Earth Crisis
Rating:
0/5 (0 votes)

Hard to play? Try these video lessons and learn fast.
                Tuning: Normal (EADGBe)



p = palm mute

/ = slide

~ = play multiple times



Riff 1:

D ----------5/4-----------5/4-----------5/4-------

A --2-2-2-2-3/2-2-2-2-2-2-3/2-2-2-2-2-2-3/2-2-3~--

E --0-0-0-0-----0-0-0-0-0-----0-0-0-0-0-----0-1~--

      p p p     p   p p p     p   p p p     p



Riff 2:

D --9~---------------

A --7~--10~--9~--7~--

E -------8~--7~--5~--

(partially palm-muted) 



Riff 3:

D --------3/2----

A --2-2-2-1/0-3--

E --0-0-0-----1--

      p p 



x3 then

A --5-5--
E --3-3--
            
Hard to play? Try these video lessons and learn fast. | Correct




comments powered by Disqus
↑ Back to top | Tablatures and chords are parodies/interpretations of the original songs. You may use it for private study, scholarship, research or language learning purposes only