» » »

Earth Crisis, Smach Or Be Smached Tabs (ver.1)

Artists:  A B C D E F G H I J K L M N O P Q R S T U V W X Y Z # 

Smach Or Be Smached Tabs (ver.1)

Earth Crisis Tabs
Rating:
0/5 (0 votes)
Smach Or Be Smached lessons Tabs too difficult? Try these video lessons and learn fast
                
Mail me with any corrections or comments at




Tune down the guitar to drop-D



Earth Crisis

Smach or be smached



pm=palm mute



Guitar riff 1 part 1

A---0---3---0---3---0---5---0---5/6-0---3---0---3---0---3---0---

D---0---3---0---3---0---5---0---5/6-0---3---0---3---0---3---0---



Guitar riff 1 part 2

G-------------------------------------------------------5/7--7/5--5--5---

D------------------------------------------------------------------------

A---0---3---0---3---0---5---0---5/6-0---3---0---3-------3/5--5/3--3--3---

D---0---3---0---3---0---5---0---5/6-0---3---0---3------------------------



Guitar riff 2

D------------5--------7--------3--3--------3--3/5--5-5-5---

A---0--------3--------5--------1--1--0--0--1--1/3--3-3-3---

D---0--------3--------5--------------0--0-------------------

                                     pm...         pm... 

Guitar riff 3

G---x--5--x--5--x--5--x--5--x--5-----------------------------

D------------------------------------------------------------

A------------------------------------0---3---5---6---5---3---

D------------------------------------0---3---5---6---5---3---



Guitar #2 riff 3

A---x--3--x--3--x--3--x--3--x--3--0---3---5---6---5---3---

D---------------------------------0---3---5---6---5---3---



Guitar riff 4

D-----------7--6--5----------------------------------------------------

A---0-------5--4--3----2^--------6--0--3---0--3--5--6--0--3--0--3--5---

D---0----------------------------6--0--3---0--3--5--6--0--3--0--3--5---

                                              pm..              pm..



Mail me for the the song structure.
            

comments powered by Disqus
↑ Back to top | Earth Crisis Tabs for Smach Or Be Smached. Lyrics for acoustic guitar and electric guitar. Tablatures and chords are parodies/interpretations of the original songs. You may use it for private study, scholarship, research or language learning purposes only