» » »

Earth Crisis, Situation Degenerates Tabs (ver.1)

Artists:  A B C D E F G H I J K L M N O P Q R S T U V W X Y Z # 

Situation Degenerates Tabs (ver.1)

Earth Crisis Tabs
 Rating:
4/5 (4 votes)
Situation Degenerates lessons Tabs too difficult? Try these video lessons and learn fast
                
Mail me with any corrections or comments at




Tune down the guitar to drop-D



Earth Crisis

Situation degenerates



pm=palm mute



Guitar riff 1

A---0-0--00----3----------5--4--------------5--------------------0-0--00----3----------5--4---------------5------0-----0--

D---0-0--00----5-------0---------5---0---3-------2---------------0-0--00----5-------0---------5---0---3------2------2-----

    pm.....            pm                                        pm......           pm



Guitar riff 2

A----0--0--8---0--0--8----0--0--8---0--0--8----0--0--8---0--0--8------5-4----4-3----3-2-------------2---------

D----0--0--6---0--0--6----0--0--6---0--0--6----0--0--6---0--0--6---0-------0------0-------0-0-0--3----3------

                                                                   pm      pm     pm      pm...



Guitar riff 3

D----------------7------------------------5------------------------------7-------------------------5-----------------

A---------3/5-------6---5---3---------3---------------------------3/5--------6---5---3-------3---------------------

D----0----------------------------4--------------------------0-----------------------------4-----------3---4---1----



Last time

A-----3---4---1--

D-----3---4---1--



Guitar riff 4

A---3---4---1---1-1-1-1-1-1-1-1-1-1-1--3---4---1---0-0-0-0-0-0-0-0-0-0-0-0--

D---3---4---1---1-1-1-1-1-1-1-1-1-1-1--3---4---1---0-0-0-0-0-0-0-0-0-0-0-0--

                pm...................              pm......................

After 4 times

B---5-----

G---7^---

X4



Guitar riff 5

A----0--0--8

D----0--0--6

X16



Guitar riff 6

A------5-4----4-3----3-2-------------2---------

D---0-------0------0-------0-0-0--3----3------

    pm      pm     pm      pm...

X4



Mail me for the the song structure.
            
Submit corrections

comments powered by Disqus
↑ Back to top | Earth Crisis Tabs for Situation Degenerates. Lyrics for acoustic guitar and electric guitar. Tablatures and chords are parodies/interpretations of the original songs. You may use it for private study, scholarship, research or language learning purposes only