» » »

New Ethic Tabs (ver.1)

Artists:  A B C D E F G H I J K L M N O P Q R S T U V W X Y Z # 

New Ethic Tabs (ver.1)

Earth Crisis
Rating:
0/5 (0 votes)

Tabs too difficult? Try these video lessons and learn fast.
                
Mail me with any corrections or comments at




Tune down the guitar to drop-D



Earth Crisis




pm=Palm mute

/=Slide



Guitar riff1

A---1--0--1--0---

D---1--0--1--0---

   pm......

A---1--0--1--3---

D---1--0--1--3---

   pm......



Guitar riff2

D---7-7-7--77-7-7--7--8--7--5--7--5---

A---5-5-5--55-5-5--5--6--5--3--5--3---

D-------------------------------------

           pm



D---7-7-7--77-7-7--7--8--7--5--7---

A---5-5-5--55-5-5--5--6--5--3--5---

D----------------------------------

           pm



Guitar riff3

D-------------------------------------------------------------3--4---

A---0-1--0-1/3--0-1--0-1/3--0-3--4--0-1--0-1/3--0-1--0-1/3--0-1--2---

D---0-1--0-1/3--0-1--0-1/3--0-3--4--0-1--0-1/3--0-1--0-1/3--0--------

    pm....      pm....     pm       pm....     pm.....     pm



Guitar riff4

D---8---------8-------4---------4------------------------3-3---------

A---6---6-6-----6-----2---2-2-----2-----0---0-000-000-00-1-1--1--3---

D---6---6-6-------6---2---2-2-------2---0---0-000-000-00------1--3---

       pm..              pm..               pm..........

D--------------------3-3---------

A---0---0-000-000-00-1-1--1--3---

D---0---0-000-000-00------1--3---

        pm..........



Guitar riff5

D---------4/3-----------

A---0--2--2/1--0--1/2---

D---0--2-------0--1/2---

   pm...      pm

X4 Then:



A---0-0--0-0-0--0-0-0--0-0-0---

D---0-0--0-0-0--0-0-0--0-0-0---

    pm.........................



Guitar riff6

D----------------3----------------------

A---0------------1------------1--0--1---

D---0-------------------------1--0--1---

                             pm.......



Guitar solo

E----------------------------------------------------------------------

B-------------11--10--8--------------------------11--10--8---------11--

G---7--9--10-------------7-------------7--9--10-------------7----------

D-------------------------------8--------------------------------------

A----------------------------------------------------------------------

D----------------------------------------------------------------------



E---10-8--------------------------------------------------

B--------11-10-8-7-8-7------------------------------------

G----------------------8--7--5-7----10-8------------------

D----------------------------------------10-8-7-5-7-5-----

A-----------------------------------------------------5---

D---------------------------------------------------------



E---------------------------------------------8--10-------

B---------------------------------------------------------

G--------------------------------------7------------------

D------------8--7--5--7--8--10--8--10---------------------

A---5--7--8-----------------------------------------------

D---------------------------------------------------------



Mail me for the the song structure.
            
Tabs too difficult? Try these video lessons and learn fast.


comments powered by Disqus
↑ Back to top | Tablatures and chords are parodies/interpretations of the original songs. You may use it for private study, scholarship, research or language learning purposes only