>
 >
Names Carved Into Granite

Names Carved Into Granite Guitar Tabs

Earth Crisis - Names Carved Into Granite chords, tabs, tablatures, lyrics

Guitar lessons | Add/correct | Request | Top 50 tabs Artists:  A B C D E F G H I J K L M N O P Q R S T U V W X Y Z 0-9

Names Carved Into Granite Guitar Tabs – Earth Crisis

CD, Sheet music, Poster

Do you like Names Carved Into Granite? Share with your friends now
Tabs
Earth Crisis




/=slide up

\=slide down

(*)=mute

*^=bend

*^`=bend up and release

*h*=hammer on

*p*=pull off





Tune to drop D



Intro(while drums are building up)



E-------------|

B--8/9^--8/9^-|

G-------------|

D-------------|

A-------------|

D-------------|



Riff 1



G-----------------------------------------------------|

D-----------------------------------------------------|

A--6-6-6-6-6-6--5-5-5-5-5-5--4-4-4-4-4-4--2-2-2-2-2-2-|

D--6-6-6-6-6-6--6-6-6-6-6-6--4-4-4-4-4-4--2-2-2-2-2-2-|



Riff 1 (guitar 2)



G--8-8-8-8-8-8-8-8--7-7-7-7-7-7-7-7-|

D--x-x-x-x-x-x-x-x--x-x-x-x-x-x-x-x-|

A--6-6-6-6-6-6-6-6--5-5-5-5-5-5-5-5-|

D-----------------------------------|



G--7-7-7-7-7-7-7-7--4-4-4-4-4-4-4-4-|

D--x-x-x-x-x-x-x-x--x-x-x-x-x-x-x-x-|

A--5-5-5-5-5-5-5-5--2-2-2-2-2-2-2-2-|

D-----------------------------------|



Riff 2



G--------------------------------------------|

D--------------------------------------------|

A--(5)-5-5-5--2/3\2/3\1--(5)-5-5-5--2/3\1-4--|

D--(5)-5-5-5--2/3\2/3\1--(5)-5-5-5--2/3\1-4--|



G--------------------------------------|

D--------------------------------------|

A--(5)-5-5-5--2/3\2/3\1----3-2-1-2-1-2-|

D--(5)-5-5-5--2/3\2/3\1----3-2-1-2-1-2-|



Riff 3



G----------------------------|

D----------------------------|

A----------6------------7----|

D--(0)-(0)---5--(0)-(0)---6--|



G--------------------------------------|

D--------------------------------------|

A----------6------------7----4/5\4-6-5-|

D--(0)-(0)---5--(0)-(0)---6--4/5\4-6-5-|



G----------------------------|

D----------------------------|

A----------6------------7----|

D--(0)-(0)---5--(0)-(0)---6--|



G----------------------------------|

D----------------------------------|

A----------6------------7----6-5-3-|

D--(0)-(0)---5--(0)-(0)---6--6-5-3-|



Repeat Riff 2



Riff 4



G---------------|

D--10-9-8-9-8-9-|

A---8-7-6-7-6-7-|

D---------------|



Riff 5



G---------------------------------------------------------|

D--10-----10-----10-----7---------------------------------|

A---8--5---8--5---8--5--5-(0)-(0)-(0)-(0)-(0)-(0)-(0)-(0)-|

D------6------6------6----(0)-(0)-(0)-(0)-(0)-(0)-(0)-(0)-|



Riff 6



G--------------------------|

D--------------------------|

A--(0)-(3)-(2)-(1)-(3)-(3)-|

D--(0)-(3)-(2)-(1)-(3)-(3)-|



Solo (almost accurate)



e---------------------------------------------------|

B-----9-6-5-6-----9-6-5-6-----9-6-5-6---------------|

G--7-----------5-----------4-----------2--3-3-5-3-2-|

D---------------------------------------------------|

A---------------------------------------------------|

D---------------------------------------------------|



e------------------------------------------------------|

B--9-9-11p9-9h11-12-11-9-11-9--5-7-5-7-8-7-7-7h8p7-7-5-|

G------------------------------------------------------|

D------------------------------------------------------|

A------------------------------------------------------|

D------------------------------------------------------|



e--7-8-7-8-10-8----------------------------------|

B----------------6h7p6h7--12-14-12-14^`-14^`--16-|

G------------------------------------------------|

D------------------------------------------------|

A------------------------------------------------|

D------------------------------------------------|



Repeat Riff 6 a couple more times



Riff 7 (Basically it is Riff 6 without muting)



G--------------|

D--------------|

A--0-3-2-1-3-4-|

D--0-3-2-1-3-4-|



Not part of Riff 7 but it is before the repetition

of the first verse



G--------------------|

D--------------------|

A--(0)-3-(0)-(0)-3-5-|

A--(0)-3-(0)-(0)-3-5-|



Repeat Riff 2



Riff 8



G--------------|

D--------------|

A--------------|

D--3-2-1-2-1-2-|



Riff 9



G-------------------------------|

D-------------------------------|

A--0-0-0-0-0-0-0-0--3-2-1-2-1-2-|

D--0-0-0-0-0-0-0-0--3-2-1-2-1-2-|



Ending           

                

e--------------| From here on, just mess around 

B-----6^-6^-7^-| with some chords, nothing really =

G--------------| specific.

D--------------|

A--0-----------|

D--0-----------|





Mail me with corrections especially for the colo





Comments


Popular Earth Crisis tabs & chords
Asphyxiate Bass Tabs
Behind The Wire Tabs
Cling To The Edge Tabs
Earth Ad Tabs
Ecocide Tabs
Fate Of The Neo-Gods Tabs
Morality Dictates Tabs
Paint It Black Tabs
Smach Or Be Smached Tabs
Sunshine Of Your Love Tabs


Song lyrics



↑ Back to top | Tablatures and chords are parodies/interpretations of the original songs. You may use it for private study, scholarship, research or language learning purposes only
© 2014 AZChords.com Contact us | Privacy policy | DMCA | Add/correct tabs | Request tabs | Top 50 tabs