» » »

Morality Dictates Tabs (ver.1)

Artists:  A B C D E F G H I J K L M N O P Q R S T U V W X Y Z # 

Morality Dictates Tabs (ver.1)

Earth Crisis
Rating:
0/5 (0 votes)

Tabs too difficult? Try these video lessons and learn fast.
                Earth Crisis


Bass Tab



Tune to drop D



Intro/Main Riff

Use heavy bass distortion



G---------------------|

D---------------------|

A---------------3-2---|

D--0--x--0-0--0-----1-|



G---------------------|

D---------------------|

A-------------5-3-2---|

D--0--x--0-0--------1-|



G---------------------|

D---------------------|

A---------------3-2---|

D--0--x--0-0--0-----1-|



G-------------|

D-------------|

A--3---5---7--|

D-------------|





Guitar uses harmonics for a while

and then goes on the same notes as bass.





Guitar harmonics:



e--7-7-5--7-7-7-5-|-7-7-5--7-7-7-5-----|

B-----------------|----------------5-7-|

G-----------------|--------------------|

D-----------------|--------------------|

A-----------------|--------------------|

D-----------------|--------------------|



Well, kiddies, that's all I have to say.

Suggestions/comments/corrections? Mail me at
            
Tabs too difficult? Try these video lessons and learn fast.




comments powered by Disqus
↑ Back to top | Tablatures and chords are parodies/interpretations of the original songs. You may use it for private study, scholarship, research or language learning purposes only