» » »

Into The Fray Tabs (ver.1)

Artists:  A B C D E F G H I J K L M N O P Q R S T U V W X Y Z # 

Into The Fray Tabs (ver.1)

Earth Crisis
Rating:
0/5 (0 votes)

Hard to play? Try these video lessons and learn fast.
                
Tuning: Drop-D (DADGBe)



Intro + Verses

G|------------------7b-------7b---|

D|------------------6p0------6p0--|

A|---4/---1---1--0------0-00------|

D|---6/---3---1--0------0-00------|

                        p pp



Guitar 2

G|--7-7-7/888888888----|

D|---------------------|

A|--5-5-5/666666666----|

D|---------------------|



Riff 2:



A|--4-4-4-1-1-1-1-1-1-0-0-0-0-0-0-0--

D|--6-6-6-3-3-3-1-1-1-0-0-0-0-0-0-0--

    p p p p p p p p p p p p p p p p



Riff 3

D|----------------------------------------------------------------------------|

A|--3-3-3-3-3-3-3-4-4-4-1-1-1-1-1-1--0-0-5\6-5/6\5-4/5\4--5/6--4/5\4-5/6\5----|

D|--3-3-3-3-3-3-3-4-4-4-1-1-1-1-1-1--0-0----0-----------00---00-----------0-0-|

                                     p p    p           pp   pp           p 

p





Riff 4:

D|----------------------------|-7/8-7/5-3^r3-|

A|--3-3-3-3/2-3-3-3-3-3/2-3-0-|--------------|

D|--3-3-3-3/2-3-3-3-3-3/2-3-0-|--------------|

            b           b



D|------------------------------7---7/8-7/5-3^r3-|

A|--3-3-3-3/2-3-3-3-3-3/2-3-0---5----------------|

D|--3-3-3-3/2-3-3-3-3-3/2-3-0--------------------|

            b           b
            
Hard to play? Try these video lessons and learn fast. | Correct




comments powered by Disqus
↑ Back to top | Tablatures and chords are parodies/interpretations of the original songs. You may use it for private study, scholarship, research or language learning purposes only