» » »

Earth Crisis, Inherit The Wasteland Tabs (ver.1)

Artists:  A B C D E F G H I J K L M N O P Q R S T U V W X Y Z # 

Inherit The Wasteland Tabs (ver.1)

Earth Crisis Tabs
 Rating:
4/5 (4 votes)
Inherit The Wasteland lessons Tabs too difficult? Try these video lessons and learn fast
1
                
Mail me with any corrections or comments at




Tune down the guitar to drop-D



Earth Crisis

Inherit the wasteland



pm=palm mute

/=slide



Guitar riff1

D-----------------------4--5---

A---0-1-2--1--2---0--0--2--3---

D---0-1-2--1--2---0--0---------

    pm...         pm..



Guitar riff2

A---0-0--0-0--0-0--0-0--0-0-0---

D---0-0--0-0--0-0--0-0--0-0-0---

   pm........................



Guitar riff3

D-----------4/5----------5/7-------4/5----------5/7----------8-10--7---

A---0-0--0--2/3---0-0-0--3/5--0-0--2/3--0-0--0--3/5--0-0--0--6--8--5---

D---0-0--0--------0-0-0-------0-0-------0-0--0-------0-0--0------------

   pm.....       pm....       pm.       pm....      pm.....



Guitar riff4

D--------7--5-5-7-7---------7--5-5-8-8-7---

A---0----5--3-3-5-5----0----5--3-3-6-6-5---

D---0------------------0-------------------



Guitar#2 riff1

E-------------------------------------------

B------10-----9-10-9--------10-----9-10-9---

G---7------7----------7--7------7-----------

D-------------------------------------------

A-------------------------------------------

D-------------------------------------------



Guitar riff5

D-------7/8-7----------------------------------7/8-7------------------------------

A---0---5/6-5--6--5---0--3--0--3--0--3/5---0---5/6-5--6--5---0--3--5----0--3--5---

D---0----------6--5---0--3--0--3--0--3/5---0----------6--5---0--3--5----0--3--5---

                     pm......     pm                        pm...................



Guitar riff6

D----------5--5--5--------5---3--3---

A---0------3--3--3---0----3---1--1---

D---0----------------0---------------



Guitar#2 riff2

G---7--7--7/8--5---5--5---7--7--7/8-10--10-10---

D-----------------------------------------------

A---5--5--5/6--3---3--3---5--5--5/6--8---8--8---

D-----------------------------------------------

X2 then:

G---7--7--7/8--5---5--5--10--9--5--3---

D--------------------------------------

A---5--5--5/6--3---3--3---8--7--3--1---

D--------------------------------------



Mail me for the song structure.
            
Submit corrections

comments powered by Disqus
↑ Back to top | Earth Crisis Tabs for Inherit The Wasteland. Lyrics for acoustic guitar and electric guitar. 1 Tablatures and chords are parodies/interpretations of the original songs. You may use it for private study, scholarship, research or language learning purposes only