» » »

Earth Crisis, Fortress Tabs (ver.1)

Artists:  A B C D E F G H I J K L M N O P Q R S T U V W X Y Z # 

Fortress Tabs (ver.1)

Earth Crisis Tabs
Rating:
0/5 (0 votes)
Fortress lessons Tabs too difficult? Try these video lessons and learn fast
                
Mail me with any corrections or comments at




Tune down the guitar to drop-D



Earth Crisis




pm=palm mute

/=slide



Guitar riff1

A--------------------------------------------------

D---6----5----0----3--5--0---1---3---6----5----0---



Guitar riff2

A---6----5----0----3--5--0---1---3---6----5----0---

D---6----5----0----3--5--0---1---3---6----5----0---

                  pm...

Guitar riff3

D------6/8/6-8/7-----5--7--------------6/7/6-8/7-----5--7---

A---0--4/5/4-6/5--0--3--5--6--------0--4/5/4-6/5--0--3--5---

D---0-------------0--------6--------0-------------0---------

   pm            pm                pm             pm

Guitar riff4

A---2--------0--1--1--0--1--3--0--1--1--0--1--3---

D---2--------0--1--1--0--1--3--0--1--1--0--1--3---

            pm......           pm.....

Guitar riff5

D--------------------------7----------------------------------7-------

A---0--0-0--0--3-3--0--5-6-5-6-5-3-5---0--0-0--0--3-3--0--5-6-5-6-5---

D---0--0-0--0--3-3--0--5-6---6-5-3-5---0--0-0--0--3-3--0--5-6---6-5---

       pm.                                pm.   

Guitar riff6       

D-----------------------------4----------------------------------------

A---0--000-----6------0--000--2--3--2---0--000-----6------3--2--0--5---

D---0--000--5-----5---0--000-----3--2---0--000--5-----5---3--2--0--5---

    pm....            pm....            pm....           pm.........

Guitar riff7

D----------------------8---

A---0--------6-5-3-5---6---

D---0--------6-5-3-5-------

            pm......



Mail me for the the song structure.
            

comments powered by Disqus
↑ Back to top | Earth Crisis Tabs for Fortress. Lyrics for acoustic guitar and electric guitar. Tablatures and chords are parodies/interpretations of the original songs. You may use it for private study, scholarship, research or language learning purposes only