» » »

Forgiveness Denied Tabs (ver.1)

Artists:  A B C D E F G H I J K L M N O P Q R S T U V W X Y Z # 

Forgiveness Denied Tabs (ver.1)

Earth Crisis
Rating:
0/5 (0 votes)

Hard to play? Try these video lessons and learn fast.
                
Mail me with any corrections or comments at




Tune down the guitar to drop-D



Earth Crisis

Forgivness denied



po=Pull off

pm=Palm mute



Guitar riff 1

A---0----0----0---------1------

D---1----1----1---1--2------2--



Guitar riff 2

A---1--1---x--x--x--x--x---1--1---x--x--x--x--x---1--1---x--x--x--x--x------3-----3--4--3-------

D---2--2---x--x--x--x--x---2--2---x--x--x--x--x---2--2---x--x--x--x--x---4-----4------------4---



Guitar riff 3

A---1--------4----3------0---

D---1--------4----3------0---



Guitar #2 riff 1

G---8-8-8-8-8-8-8-8-11-11-11-11-11/10-10-10-10-7-7-7-7-7-7-7-7-7-7-7-7-7-7-7---

D-------------------------------------------------------------------------------------

A---6-6-6-6-6-6-6-6-9-9-9-9-9/8-8-8-8-5-5-5-5-5-5-5-5-5-5-5-5-5-5-5---------

D-------------------------------------------------------------------------------------



Guitar riff 4

A---3--3--3-4/3--3--3--3-4/3--3--3--3-4/3--3--3--3-4/3--3--0--0--0-1/0--0--0--0-1/0--0--0--0-1/0--0--0--0-0-1/0--0---

D--------------------------------------------------------------------------------------------------------------------

             po          po            po           po              po           po           po             po     



Mail me for the the song structure.
            
Hard to play? Try these video lessons and learn fast. | Correct




comments powered by Disqus
↑ Back to top | Tablatures and chords are parodies/interpretations of the original songs. You may use it for private study, scholarship, research or language learning purposes only