» » »

Earth Crisis, Forged In The Flames Tabs (ver.1)

Artists:  A B C D E F G H I J K L M N O P Q R S T U V W X Y Z # 

Forged In The Flames Tabs (ver.1)

Earth Crisis Tabs
 Rating:
4/5 (4 votes)
Forged In The Flames lessons Tabs too difficult? Try these video lessons and learn fast
                Tuning: Normal (EADGBe)



p = palm mute

f = flagolettes

/ = slide



Riff 1:

A --5-4-0-0-0-0-5-4-0-0-0-0-0--

E --3-2-0-0-0-0-3-2-0-0-0-0-0--

    p p p p p p p p p p p p p



Riff 2:

D ----7-----------------------7------

A --2-5-8-5--2-2-2-2-2-2-2-2--5-8-5--

E --0---6-3--0-0-0-0-0-0-0-0----6-3--

             p p p p p p p p



Riff 3:

B --------12-12-------12-12-------12-12----------

G -----------------------------------------------

D --------------------------------------6-5-3-5--

A --2-2-2-------2-2-2-------2-2-2-------4-3-1-3--

E --0-0-0-------0-0-0-------0-0-0----------------

    p p p f  f  p p p f  f  p p p f  f



Riff 4:

A --2/4-2-2-2/4-2-2-2/4-2-2-2-2-7--

E --0/2-0-0-0/2-0-0-0/2-0-0-0-0-5-- 

        p p     p p     p p p p
            
Submit corrections

comments powered by Disqus
↑ Back to top | Earth Crisis Tabs for Forged In The Flames. Lyrics for acoustic guitar and electric guitar. Tablatures and chords are parodies/interpretations of the original songs. You may use it for private study, scholarship, research or language learning purposes only