» » »

Earth Crisis, Forced March Tabs (ver.1)

Artists:  A B C D E F G H I J K L M N O P Q R S T U V W X Y Z # 

Forced March Tabs (ver.1)

Earth Crisis Tabs
Rating:
0/5 (0 votes)
Hard to play? Try these video lessons and learn fast.
                Earth Crisis




Tune to dropped D

(DADGBe)



()=palm mute

/=slide up

\=slide down

^=bend up/release



Opening/closing riff:



G----7-8-----7-8-----7-8-----7-8-|---------------|

D--------------------------------|---------------|

A--------------------------------|-(0-2-0-3-4-5)-|

D-0-------0-------0-------0------|-(0-2-0-3-4-5)-|



Riff 2



G----------------------|

D-----------------7----|

A-(0000-0000-000)-5-6\-|

D-(0000-0000-000)---6\-|



Riff 3



G-------------------------|----------------------------------|

D-----6/7\6-5-----5/6\5-3-|-----6/7\6-5-----5/6\5-3----------|

A-(0)-4/5\4-3-(0)-3/4\3-1-|-(0)-4/5\4-3-(0)-3/4\3-1--(0-1-2)-|

D-(0)---------(0)---------|-(0)---------(0)----------(0-1-2)-|



Riff 4



G----------------------------|

D----------------------------|

A-(0-1)-2------(0-1-2)-3-5-6-|

D-(0-1)---4-3--(0-1-2)-------|



Repeat riff 3



Riff 5



G----------------------|----------------------|

D-------9^-7/9---------|----------------------|

A----11---------0--5-7-|-(0-0--3-3--4-4--5-5)-|

D-0-------------0--5-7-|-(0-0--3-3--4-4--5-5)-|



Riff 6



G------------------------------------------------------|

D-------7-5-----4-5-----9-8--------7-5-----4-5---------|

A-(0-0)-5-3-(0)-2-3-(0)-7-6--(0-0)-5-3-(0)-2-3-(0)-6-4-|

D-(0-0)-----(0)-----(0)------(0-0)-----(0)-----(0)-6-4-|



Riff 7



G----------------------------------------------|

D--------------------10-10--10-10--10-10-10-10-|

A-0-0--0-0--0-0-0-0---8--8---8--8---8--8--8--8-|

D-0-0--0-0--0-0-0-0----------------------------|



Riff 8 guitar 1

 			7x then.....

e----------------------------------|---------|

B----------------------------------|---------|

G-6-7-6-7-9-7-6-6--6-7-6-7-9-7-6-7-|-6-5-3-0-|



Riff 8 guitar 2



G-----------------------|

D-----------------------|

A-(0-1-0-1-0-1-0-1-3-2)-|

D-(0-1-0-1-0-1-0-1-3-2)-|



Back to opening/closing riff
            

comments powered by Disqus
↑ Back to top | Earth Crisis Tabs for Forced March. Lyrics for acoustic guitar and electric guitar. Tablatures and chords are parodies/interpretations of the original songs. You may use it for private study, scholarship, research or language learning purposes only