» » »

Fate Of The Neo-Gods Tabs (ver.1)

Artists:  A B C D E F G H I J K L M N O P Q R S T U V W X Y Z # 

Fate Of The Neo-Gods Tabs (ver.1)

Earth Crisis
Rating:
0/5 (0 votes)

Tabs too difficult? Try these video lessons and learn fast.
                
Mail me with any corrections or comments at




Tune down the guitar to drop-D



Earth Crisis

Fate of the neo-gods



pm=palm mute



Guitar riff 1

A---0---0000-1/0--0-0---0-1-0--4--1---

D---0---0000-1/0--0-0---0-1-0--4--1---

        pm..      pm    pm...



Guitar riff 2

A---0--------------------------------------

D---0----2---1-----5--4---2/4------------

X2 then guitar #2 fills in



Mail me for the the song structure.



Guitar #2 riff 2

D--------9---8-----12--11---9/11-----7----9---8-----12--11---9/11---

A---0----7---6-----10--9---7/9-------5----7---6-----10--9---7/9------

D---0--------------------------------------------------------------------



Guitar riff 3

D-----------------------------2-----------------------------------7--------------------

A--------------------------2-----2-----2--------------------------5--6--5--6--8--10---

D---0000--0000--0000----3-----------3-------0000--0000--0000---------6--5--6--8--10--- 

    pm..............                        pm..............                  pm.....



Guitar riff 4

A---------------------

D---0--2--0--2/3/2---
            
Tabs too difficult? Try these video lessons and learn fast.




comments powered by Disqus
↑ Back to top | Tablatures and chords are parodies/interpretations of the original songs. You may use it for private study, scholarship, research or language learning purposes only