» » »

Earth Crisis, Edens Demise Tabs (ver.1)

Artists:  A B C D E F G H I J K L M N O P Q R S T U V W X Y Z # 

Edens Demise Tabs (ver.1)

Earth Crisis Tabs
4/5 (4 votes)
Edens Demise lessons Tabs too difficult? Try these video lessons and learn fast
                Tuning: Normal (EADGBe)

p = palm mute

b = bend

/ = slide

Riff 1:

A --2-2-2-2--

E --0-0-0-0--

Riff 1 guitar 2:

A --9-7-9-10----2-2-2-2--2-2-2-2--2-2-2-2--2-2-2-2--

E --7-5-7-8-----0-0-0-0--0-0-0-0--0-0-0-0--0-0-0-0--

Riff 2 (fast!):

D ------------------------4-2-5--

A --2-2-2-2-2-2-2-2-2-2-2-2-0-3--

E --0-0-0-0-0-0-0-0-0-0-0--------

    p   p   p p   p   p   p p

I don't know the guitar line.

Riff 3:

D ------2-----3/0-2--

A --2-2---2-2--------

E --0-0---0-0--------

    p p b p p b   b

Riff 4:

D -----6-8-----

A --2--4-6--3--

E --0-------1--

Riff 5:

A --2-2-2-2-2-------3-----3--

E --0-0-0-0-0-3/0-0-1-0-0-1--

    p p p p p     p   p p
Submit corrections

comments powered by Disqus
↑ Back to top | Earth Crisis Tabs for Edens Demise. Lyrics for acoustic guitar and electric guitar. Tablatures and chords are parodies/interpretations of the original songs. You may use it for private study, scholarship, research or language learning purposes only