» » »

Destroy The Machines Tabs (ver.1)

Artists:  A B C D E F G H I J K L M N O P Q R S T U V W X Y Z # 

Destroy The Machines Tabs (ver.1)

Earth Crisis
Rating:
0/5 (0 votes)

Hard to play? Try these video lessons and learn fast.
                
Mail me with any corrections or comments at




Tune down the guitar to drop-D



Earth Crisis

Destroy the machines



pm=palm mute



Guitar riff1

E-----------------------

B---12--------15--------

G--------13--------13---

D-----------------------

A-----------------------

D-----------------------



Guitar2 riff1

A---0-------------1--0------1--0--1--0---

D---0-------------1--0------1--0--1--0---

                  pm....................



Guitar riff2

A---0--6--5--6--5---5--6--5--6--3---

D---0-------------------------------



A---0--6--5--6--5---5--6--5--6--8---

D---0-------------------------------



Guitar2 riff2

D-----------------------1------

A---0----------------1-----1---

D---0-------------0------------

                  pm..



Guitar riff3

A---0-0-0-0-0-0-0-0--0--0--0-0--0--0---0--0---

D---0-0-0-0-0-0-0-0--0--0--0-0--0--0---0--0---

    pm.....................................



Guitar2 riff3

A---8--------7--------8--------7----6---

D---8--------7--------8--------7----6---



Guitar riff4

D-----------0-------------0------

A---0-0--0-----1---0-0-0-----1---

D---0-0--0---------0-0-0---------

    pm....         pm...



Guitar riff5

A---3--2--0--2--3--2--0--2--3--2--0--2--3--2--0--2---3------5-----

D---3--2--0--2--3--2--0--2--3--2--0--2--3--2--0--2---3------5-----

    pm............................................



Mail me for the the song structure.
            
Hard to play? Try these video lessons and learn fast. | Correct




comments powered by Disqus
↑ Back to top | Tablatures and chords are parodies/interpretations of the original songs. You may use it for private study, scholarship, research or language learning purposes only