» » »

Earth Crisis, Constrict Tabs (ver.1)

Artists:  A B C D E F G H I J K L M N O P Q R S T U V W X Y Z # 

Constrict Tabs (ver.1)

Earth Crisis Tabs
Rating:
0/5 (0 votes)
Constrict lessons Tabs too difficult? Try these video lessons and learn fast
                
Mail me with any corrections or comments at




Tune down the guitar to Drop-D



Earth crisis




(X)=Harmonics

pm=Palm mute

po=Pull off



Intro

D-----------5---------------------3------                     

A------3--------4----------1-----------2-            

D--0-----------------0--------------------



Intro Last time



D-----------3--------

A------1-------------

D--0-------------2---



Riff 1

D--------5-6------------3----------------------------------

A--0-0---3-4----0-0-----1-2---0-3----------------3--5-5-3-5

D--0-0----------0-0-------2---0-3----------------3--5-5-3-5

   pm           pm            pm



Riff 2

G-----------------------------------------------------------(5)-----------------

D--------------------------------------------------------------(5)--------------

A---------4/0--5-4------------------------4/0--5-4---------------------------

D---0-0--------------0-3^---------0-0------------------------------------------

    pm              pm            pm

Last time

G-------(5)

D----(5)--

A---------

D---------



Riff 3

A---0-0-0-0--0-0-0-0--0-0-0-0----0-0-0-0--0-0-0-0--0-0-0-0--0

D---0-0-0-0--0-0-0-0--0-0-0-0----0-0-0-0--0-0-0-0--0-0-0-0--0

    pm.......................................................

Riff 4

D---------------5/0----5--6---------------------5/0----5-------------------

A-----------5/0--------3--4-----------------5/0--------3-----5------------

D---0-0-----------------------------0-0----------------------5------------

    pm      po   po                 pm        po  po



Riff 5

D--------------------------------------------------------------------------------

A---0--5--3--0--3--0--3--6--5--------------0--5--3--0--3--0--3--5-----6----------

D---0--5--3--0--3--0--3--6--5--------------0--5--3--0--3--0--3--5-----6----------

      pm............................       pm.............................



Bass Riff 1

D------------------------------------------------------------------6--6-------

A---------3--2--------------------------------3--2----------------6--6-------

D---0--3--------3--0--3--6---5--------0--3--------3--0--3--5---6--6-------

Bass and drums without guitar X 1,5



Guitar fills in on the last time.

D---------5--4--------------------------------------

A---0--3--3--2--3--0--3--5---6---------------------

D---0--3--------3--0--3--5---6---------------------

    pm................................

Guitar riff 6

A---0--5--3--0--3--0--3--5----6----3----8

D---0--5--3--0--3--0--3--5----6----3----8

   pm..................



Guitar riff 7

A---0----------1---------0----------1------------3--2------2-------

D-----------0---------------------0---------0--3--------3-----------

            pm                   pm

X8 then guitar#2 riff1 X4

D---7---------8--------7-----------8---------------------------

A---5---------6--------5-----------6--------------3--2------2-

D--------0--------------------0-------------0--3---------3-----

         pm                   pm            

Guitar riff 8

A--0-0--0---1/0--0-0-0

D--0-0--0---1/0--0-0-0

                 pm... 

X4 Then:

E----19---

B----22^--

         full bend

Guitar riff 8 faster X4

A---0-0--0---1/0--0-0-0--0-0-0-0

D---0-0--0---1/0--0-0-0--0-0-0-0

                  pm..   pm........



Mail me for the the song structure.
            
Submit corrections

comments powered by Disqus
↑ Back to top | Earth Crisis Tabs for Constrict. Lyrics for acoustic guitar and electric guitar. Tablatures and chords are parodies/interpretations of the original songs. You may use it for private study, scholarship, research or language learning purposes only