» » »

Earth Crisis, Cling To The Edge Tabs (ver.1)

Artists:  A B C D E F G H I J K L M N O P Q R S T U V W X Y Z # 

Cling To The Edge Tabs (ver.1)

Earth Crisis Tabs
Rating:
0/5 (0 votes)
Cling To The Edge lessons Tabs too difficult? Try these video lessons and learn fast
                
Mail me with any corrections or comments at




Tune down the guitar to drop-D



Earth Crisis

Cling to the edge



pm=palm mute



Intro

A--1--1---1--1

D--1--1---1--2



End of intro

A------1---

D---2-----2



Guitar riff 1

A---1------1

D---1------2

X4 then

D--------1/2----------------

A-------------1/2--2/3--3/4

D--0-0----------------------

   pm..



Guitar riff 2

G---------------0------------------------0---------

D-----------3------------------------2-------------

A-------1------------------------0-----------------

D---2--------------------2--1-------------------1-



Guitar riff 3

D---2-2---2-2-3-2---2-2-2-3-3-2-2-1-1---1-1-2-1---1-1-1-2-2-1-1---

A---2-2---2-2-2-2---2-2-2-2-2-2-2-1-1---1-1-1-1---1-1-1-1-1-1-1---

D---2-2---2-2-2-2---2-2-2-2-2-2-2-1-1---1-1-1-1---1-1-1-1-1-1-1---



Guitar riff 4

D---2-2-2-2--1-2--2-2-2--2--1-1-2-2--1-1-1-1--2-1--1-1-1--1--2-2-1-1---

A---2-2-2-2--2-2--2-2-2--2--2-2-2-2--1-1-1-1--1-1--1-1-1--1--1-1-1-1---

D---2-2-2-2--2-2--2-2-2--2--2-2-2-2--1-1-1-1--1-1--1-1-1--1--1-1-1-1---

   pm....         pm..               pm.....       pm..



Guitar riff 5

D---7/8/7---5/6/5---4--------------------------7/8/7---5/6/5---4-------------------------

A---5/6/5---3/5/3---2----2-2-2-2--2-2-2-2-2----5/6/5---3/5/3---2----0-0-0-0--0-0-0-0-0---

D------------------------2-2-2-2--2-2-2-2-2-------------------------0-0-0-0--0-0-0-0-0---

                          pm................                        pm................

Bridge

G-------------------3----------

D---------2-----4------2------

A------1-----1------------1---

D---0--------------------------



Guitar riff 6   FAST!!!!

A----------------------------------------------------------1/0-----

D---2/0-0-2/0-0-2/0-0-2/0-0-2/0-2/0-2/0-2/0-0-2/0-0-2/0-0------3/0-



G-------------------------------------------------------3---------

D---------------------------------------------2-----4------2------

A------------------------------------------1-----1------------1---

D---2/0-0-2/0-0-2/0-0-2/0-0-2/0-2/0-0-----------------------------



Mail me for the the song structure.
            

comments powered by Disqus
↑ Back to top | Earth Crisis Tabs for Cling To The Edge. Lyrics for acoustic guitar and electric guitar. Tablatures and chords are parodies/interpretations of the original songs. You may use it for private study, scholarship, research or language learning purposes only