» » »

Earth Crisis, Cease To Exist Tabs (ver.1)

Artists:  A B C D E F G H I J K L M N O P Q R S T U V W X Y Z # 

Cease To Exist Tabs (ver.1)

Earth Crisis Tabs
 Rating:
4/5 (4 votes)
Cease To Exist lessons Tabs too difficult? Try these video lessons and learn fast
                
Mail me with any corrections or comments at




Tune down the guitar to drop-D



Earth Crisis

Cease to exist



pm=palm mute

h=hammer on

po=pull off



Guitar riff 1

A---------2--------3---2-------------2--------3---0---

D---0--0-----0--0------2-------0--0-----0--0------0---

    pm...    pm...            pm...    pm...



Guitar riff 2

A---2----2----2----2--3--2--3--5----0----0----0----0--1--0--1--3---

D---2----2----2----2--3--2--3--5----0----0----0----0--1--0--1--3---

                  pm......                        pm......



Guitar riff 3

A---0---0-0---0-0---0-0---0-6-6---0---0-0---0-0-----1-------3-1-----

D---0---0-0---0-0---0-0---0-6-6---0---0-0---0-0---0---3-0-0-----3---

        pm    pm    pm    pm          pm    pm    pm    pm.



Guitar riff 4

D---------7--7-7--9--7-------------

A---0--0--6--6-6--6--6--0--0---0---

D---0--0----------------0--0---0---



Guitar#2 Riff 1

G-----------------------11-11-11-11---

D---------7--7-7--9--7--10-10-10-10---

A---0--0--6--6-6--6--6--9-9-9-9-------

D---0--0------------------------------



Guitar riff 5

E-------------------------------------------------------------------------------

B-------3-----------------3-----------------3-----------------------------------

G----------2--3--------------2--3--------------2--3-----2--5--2--3---3/5/3--2---

D-------------------------------------------------------------------------------

A---0-----------------0-----------------0---------------------------------------

D---0-----------------0-----------------0---------------------------------------

                                                                      h po



Bridge

G-----5/7----10--10/12--8---

D---------------------------

A-----3/5----8---8/10--6----

D---------------------------



Guitar riff 6

A-----7-6---6-5-------5-4---4-3-------

D---0-----7-----6-5-0-----5-----4-3---



Mail me for the the song structure.
            
Submit corrections

comments powered by Disqus
↑ Back to top | Earth Crisis Tabs for Cease To Exist. Lyrics for acoustic guitar and electric guitar. Tablatures and chords are parodies/interpretations of the original songs. You may use it for private study, scholarship, research or language learning purposes only