» » »

Earth Crisis, Broken Foundation Tabs (ver.1)

Artists:  A B C D E F G H I J K L M N O P Q R S T U V W X Y Z # 

Broken Foundation Tabs (ver.1)

Earth Crisis Tabs
Rating:
0/5 (0 votes)
Hard to play? Try these video lessons and learn fast.
                
Mail me with any corrections or comments at




Tune down the guitar to drop-D



Earth Crisis

Broken foundation



pm=palm mute

/=slide

^=bend



Guitar riff1

D---5---4---

A---3---2---

D-----------

X4 then:

A---1--3--4--3---

D---1--3--4--3---

   pm.........



Guitar riff2

G----------------------7/9---

D----------------------------

A------0---0-0--0---0--5/7---

D---0------0-0--0---0--------

X3 then:

A------0---0-0--0--1--3--4--3---

D---0------0-0--0--1--3--4--3---

                pm...........



Guitar#2 riff1

A------0---0-0--0---0--0/1---

D---0------0-0--0---0--0/1---

X3 then:

A------0---0-0--0--1--3--4--3---

D---0------0-0--0--1--3--4--3---

                pm...........



Guitar riff3

A------0---0-0--0---0---

D---0------0-0--0---0---

X3 then:

A------0---0-0--0--1--3--4--3---

D---0------0-0--0--1--3--4--3---

                pm...........



Guitar riff4

D---5---4------------5---4-----2---

A---3---2------------3---2-----0---

D----------------------------------



Guitar#2 riff2

A---2-2---2-2--2-2----3-3---2-2--0-0---

D---2-2---2-2--2-2----3-3---2-2--0-0---

   pm................................



Bridge

D-------12------

A---/12----11---

D---------------



Guitar riff5

A----------5---------------5------

D---0--0------6-----0--0------6---

X3 then:

A----------5---------------5----------

D---0--0------6-----0--0------6---6---



Guitar#2 riff3

D------------12------------------12-------

A----------------11------------------11---

D---12--12--------------12--12------------

X3 then:

D------------12------------------12------------

A----------------11------------------11---11---

D---12--12--------------12--12-----------------



Guitar riff6

D-------7------5------7------------------

A---0---5--6---3---0--5--6---3--5--6/5---

D---0------6-------0-----6---3--5--6/5---

X3 then:

D-------7------5--7--8--7----------

A---0---5--6---3--5--6--5--5/6-5---

D---0------6---------------5/6-5---



Guitar riff7

D---5-------5---5--5--7/5-5-----5/7-5---

A---3--0-0--3-0-3--3--5/3-3--0--3/5-3---

D------0-0----0--------------0----------

      pm..    pm             pm

D---5-------5---5--7--8--7----------

A---3--0-0--3---3--5--6--5--5/6-5---

D------0-0------------------5/6-5---

       pm.



Guitar#2 riff4

G---7------3-----10------8---

D----------------------------

A---5------1------8------6---

D----------------------------



Guitar riff8

D------8/7-----7/8----10/8-----8/7-------5/7---

A---0--6/5--0--5/6--0--8/6--0--6/5--0-0--3/5---

D---0-------0-------0-------0-------0-0--------

   pm      pm      pm      pm       pm.



bridge2

E---12----        E---7----        E---15----

B---15^---        B--10^---        B---18^---

G---------   And  G--------   And  G---------

D---------        D--------        D---------

A---------        A--------        A---------

D---------        D--------        D---------



Guitar riff9

D------4/3-----3--3------4/3------

A---3--2/1-0-3-1--1--3/1-2/1--0---

D---3------0-3-------3/1------0---

          pm                  pm

D------4/3-----3--3------4/3------1---

A---3--2/1-0-3-1--1--3/1-2/1----1-----

D---3------0-3-------3/1------3-------

           pm          

Guitar riff10

G--------------------------7-7-7-10-10-10-10-8-8-8-8-7-7-7---

D------------------------------------------------------------

A---5--6--0--3--6--5--0----5-5-5-8-8-8-8-6-6-6-6-5-5-5-------

D---5--6--0--3--6--5--0--------------------------------------



G--------------------------7-7-7-7-5-5-5-5-3-3-3-3-2-2-2---

D----------------------------------------------------------

A---5--6--0--3--6--5--0----5-5-5-5-3-3-3-3-1-1-1-1-0-0-0---

D---5--6--0--3--6--5--0------------------------------------



Guitar#2 riff5

A---5--6--0--3--6--5--0-----0-0--0----0-0--0---

D---5--6--0--3--6--5--0-----0-0--0----0-0--0---

                           pm..      pm..

Outro

E-------10-----------------------

B---10---------------------------

G--------------------------------

D--------------------------------

A-------------------0---0-0--0---

D----------------0------0-0--0---



Mail me for the song structure.
            

comments powered by Disqus
↑ Back to top | Earth Crisis Tabs for Broken Foundation. Lyrics for acoustic guitar and electric guitar. Tablatures and chords are parodies/interpretations of the original songs. You may use it for private study, scholarship, research or language learning purposes only