» » »

Born Of Pain Tabs (ver.1)

Artists:  A B C D E F G H I J K L M N O P Q R S T U V W X Y Z # 

Born Of Pain Tabs (ver.1)

Earth Crisis
Rating:
0/5 (0 votes)

Hard to play? Try these video lessons and learn fast.
                
Mail me with any corrections or comments at




Tune down the guitar to drop-D



Earth Crisis

Born from pain



pm=palm mute

/=slide

p=pull off



Guitar riff1

A---0-0-0-0-0-0-0-0-0-0-0-0-0-0-0-0-6--5--3--5--3--2--3--2---

D---0-0-0-0-0-0-0-0-0-0-0-0-0-0-0-0-6--5--3--5--3--2--3--2---

   pm......................................................



Guitar riff2

G--------7----------------------------------

D-----------7-------------------------------

A---0-0---------0---1--0----0--3-----0------

D---0-0---------0---1--0----0-----3-----0---

    pm.        pm          pm



Guitar riff3

A---0-0-0--0-0-1p0--0-1p0--0-1p0---3--2--0---

D---0-0-0--0-0------0------0-------3--2--0---

    pm........     pm      pm     pm.......



Guitar riff4

A---0---------0----------0------------2--0-----0---------

D---0----5----0-----5----0----5----0--------3-----3--2---



Guitar riff5

D------------------------------3/5-----7--------

A---0-3-2-0--1--------0-3-2-0--1/3--0--5--0-0---

D---0-3-2-0-----------0-3-2-0-------0-----0-0---

   pm......           pm.....      pm     pm.



Guitar #2 fills in

A---0-3-2-0-0---

D---0-3-2-0-0---

and with

A---0--0--0--0---

D---0--0--0--0---



Guitar riff6

D-----------3/5---7---10/12------5/6----------3/5---7-------------------

A---0-3-2-0-1/3-0-5--0-8/10--0-0-3/4--0-3-2-0-1/3-0-5--3/2-0--3--2--3---

D---0-3-2-0-----0----0-------0-0------0-3-2-0-----0----3/2-0--3--2--3---

   pm......    pm   pm      pm..     pm......    pm        pm........



Lead guitar

A---5----6----8----3----5----1---

D--------------------------------



Guitar riff7

D---x-7-x-7-x-7-x-7-x-7-----------

A---x-5-x-5-x-5-x-5-x-5--6-5-3-0---

D------------------------6-5-3-0---

                         pm...

Guitar riff8

A---5-9-5-9-5-9-5-9--6-5-3-0---

D--------------------6-5-3-0---

   pm.....................



Mail me for the the song structure.
            
Hard to play? Try these video lessons and learn fast. | Correct




comments powered by Disqus
↑ Back to top | Tablatures and chords are parodies/interpretations of the original songs. You may use it for private study, scholarship, research or language learning purposes only