» » »

Behind The Wire Tabs (ver.1)

Artists:  A B C D E F G H I J K L M N O P Q R S T U V W X Y Z # 

Behind The Wire Tabs (ver.1)

Earth Crisis
Rating:
0/5 (0 votes)

Hard to play? Try these video lessons and learn fast.
                bandname: Earth Crisis
songname: Behing the wire
tabtype:  guitar
Tuning:   C# standard (c#,F#,B,E.G#,C#)



This tab is fairly accurate, if you are getting
frustrated with a part it may be wrong.



  FILL 1 - 0:08   

 PM............
C#|------------|
G#|------------|
E |------------| 
B |------------|
F#|-4-4--4-4-4-|
C#|-2-2--2-2-2-|


  RIFF 1   0:09
   
C#|-------------------------------------------------|
G#|-------------------------------------------------|
E |-------------------------------------x-x-x-x-x-x-| 
B |-------------------------------------x-x-x-x-x-x-|
F#|-2-4-2-4-2-4-2-5-2-4/5---2-4-2-4-2-4-x-x-x-x-x-x-|
C#|-0-2-0-2-0-2-0-3-0-2/3---0-2-0-2-0-2-x-x-x-x-x-x-|


  FILL 2 - 0:17   (wah-wah)
   
C#|-12-12--12-12-12--12\-|
G#|-12-12--12-12-12--12\-|
E |----------------------| 
B |----------------------|
F#|----------------------|
C#|----------------------|


  FILL 3 - 0:21   
   
C#|----------|
G#|----------|
E |----------| 
B |----------|
F#|-x-x------|
C#|-x-x--15\-|


 RIFF 2   0:27
   
C#|-------2--------------------|
G#|----------------------------|
E |-----4---4---4-----6----2---| 
B |---4-------4---------6--2---|
F#|-2--------------4-------0---|
C#|----------------------------|


  RIFF 3 - 0:30   
   
C#|-------------------------------|
G#|-------------------------------|
E |-------------------------------| 
B |-------------------------------|
F#|---h------------h--------------|
C#|--0-2-2-2-2--2-0-2-2-2-3-2~--2-|



  RIFF 4 - 0:40  

 PM...............................
C#|-------------------------------|
G#|-------------------------------|
E |-------------------------------| 
B |-------------------------------|
F#|---h------------h--------------|
C#|--0-2-2-2-2--2-0-2-2-2-3-2~--2-|


(At 0:45 thats the first part of RIFF 1 played through a wah-wah picked only on the lowest string)


  RIFF 5 - 1:34 (Let off palm muting totally on this riff at 1:43)

 PM.................          ................
C#|--------------------------------------------------|
G#|--------------------------------------------------|
E |--------------------------------------------------| 
B |--------------------------------------------------|
F#|--2-4-4-2-4-4-4-2--p---p---2-4-4-2-4-4-4--4--5--5-|
C#|--0-2-2-0-2-2-2-0-3-2-3-2--0-2-2-0-2-2-2--2--3--3-|
            
Hard to play? Try these video lessons and learn fast. | Correct




comments powered by Disqus
↑ Back to top | Tablatures and chords are parodies/interpretations of the original songs. You may use it for private study, scholarship, research or language learning purposes only