>
 >
Asphyxiate

Asphyxiate Guitar Tabs

Earth Crisis - Asphyxiate chords, tabs, tablatures, lyrics

Guitar lessons | Add/correct | Request | Top 50 tabs Artists:  A B C D E F G H I J K L M N O P Q R S T U V W X Y Z 0-9

Asphyxiate Guitar Tabs – Earth Crisis

CD, Sheet music, Poster

Do you like Asphyxiate? Share with your friends now
Bass TabsBass Tabs v2Tabs
Earth Crisis




Dropped D tuning



/=slide up

\=slide down

h=hammer on

p=pull off

()=palm muting

^=bend



Intro



D-------4-|

A-/5--4---|

D-/5------|



Riff 1



D------------------------------------------------------4-|

A-(0-1-0-0--0-1-0-2-0-0-0--0-1-0-2-0-0-0--0-1-0)--5--4---|

D-(0-1-0-0--0-1-0-2-0-0-0--0-1-0-2-0-0-0--0-1-0)--5------|



Riff 2 

	       3X with this: fourth time with this:

D--------------------5----|-4-----3/4-|-4--4-|

A-(0-1-0)-1/2--(0-0)-3-(0)|-2-(0)-1/2-|-2--2-|

D-(0-1-0)-1/2--(0-0)---(0)|---(0)-----|------|



Riff 3 gtr 1



D-7----6-|-7-7--7-7--6-6--6-6-|

A-5----4-|-5-5--5-5--4-4--4-4-|

D-0----0-|--------------------|



Riff 3 gtr 2



e-4-5-5-4h5p4--5-5-4h5p4-5-5-|-3-4-4-3h4p3--3-3-3h5p3-4-4-|

B----------------------------|----------------------------|



Riff 4



D---------7-------------7-|---------6-------------6-|

A-0-0-(0)-5-(0)-0-0-(0)-5-|-0-0-(0)-4-(0)-0-0-(0)-4-|

D-0-0-(0)---(0)-0-0-(0)---|-0-0-(0)---(0)-0-0-(0)---|



Throw this in after 3x of playing riff 4



D---------7^-------------7^-|---------6^-------------6^-|

A-0-0-(5)----(0)-0-0-(5)----|-0-0-(4)----(0)-0-0-(4)----|

D-0-0--------(0)-0-0--------|-0-0--------(0)-0-0--------|



Riff 5

	   3X w/ this: then the last time w/ this:

D-----------6\5-----|-----7-|------|

A-(0-1)-3/4-----0-0-|-(0)-5-|-3--5-|

D-(0-1)---------0-0-|-(0)---|-3--5-|



Riff 6



D------------------------------|

A-6-6-7-6-4-6--0-(0-0)-0-(0-0)-|

D-6-6-7-6-4-6--0-(0-0)-0-(0-0)-|





Comments


Popular Earth Crisis tabs & chords
Sunshine Of Your Love Bass Tabs
Sunshine Of Your Love 1 Bass Tabs
Behind The Wire Tabs
Constrict Tabs
Earth Ad Tabs
Firestorm 1 Tabs
Forced March Tabs
New Ethic Tabs
Paint It Black Tabs
Sunshine Of Your Love Tabs


Song lyrics



↑ Back to top | Tablatures and chords are parodies/interpretations of the original songs. You may use it for private study, scholarship, research or language learning purposes only
© 2014 AZChords.com Contact us | Privacy policy | DMCA | Add/correct tabs | Request tabs | Top 50 tabs