» » »

The Dire And Ever Circling Wolves Tabs (ver.1)

Artists:  A B C D E F G H I J K L M N O P Q R S T U V W X Y Z # 

The Dire And Ever Circling Wolves Tabs (ver.1)

Earth
Rating:
5/5 (1 vote)

Hard to play? Try these video lessons and learn fast.
                -----------------------------------------------------------------------------
    The Dire And Ever-Circling Wolves - Earth
-----------------------------------------------------------------------------

Tuning: standard

this one was a doozie at almost 8 minutes, took me quite a bit.
guitar 1 unless labeled otherwise. guitar 2 is overdub.
(pretty sure there is only 1 guitarist).

sorry about spacing, timing is difficult, especially for earth.
on the other hand, all the notes are right. enjoy

e|---------------------------------------------------------------------------|
B|---------------------------------------------------------------------------|
G|---------0------------------------------------------0------------0---------|
D|---2--0----------------------------------------2--0--------2--0------------|
A|-----------------2--0-----(2)-0--------------------------------------------|
E|-3---------------------3---------3--0--------3-----------3-----------------|

e|---------------------------------------------------------------------------|
B|---------------------------------------------------------------------------|
G|---------------------------------------------------------------------------|
D|---------2-----------------------------------------------------------------|
A|--2-0---------2-0----------------------------------------------------------|
E|-------3----------3--0-----------------------------------------------------|

guitar 2 (starts 1:15)
e|---------------------------------------------------------------------------|
B|----------------------------------8----------------------------------------|
G|----------------------------7-------9-7-9----------------------------------|
D|------------------------7-9-----9------------------------------------------|
A|---------------------------------------------------------------------------|
E|---------------------------------------------------------------------------|

guitar 1 start again @ 1:24
e|---------------------------------------------------------------------------|
B|---------------------------------------------------------------------------|
G|------------------------------------------9--------------0-----------------|
D|---------------------------------------------------2--0--------------------|
A|-------2--0----2-0----2--0--------------7----------------------------------|
E|-0--3---------------3------3--0--(0)-------------3-------------------------|

e|---------------------------------------------------------------------------|
B|---------------------------------------------------------------------------|
G|-------------------------------0-----------0-------------------------------|
D|-------------------------2--0---------2--0--------2------0-----------------|
A|-2-0----2--0-------------------------------------------2---1---------------|
E|-----3-------3---0-----3------------3-----------3----3---------------------|

e|---------------------------------------------------------------------------|
B|---------------------------------------------------------------------------|
G|--------------4----------------------------------9---------0---------------|
D|-7^--5----6-7------------------------------------------2-0-----------------|
A|--------7-------------2-0----2-0----2-0--------7--------------2-0----2-0---|
E|-----------------0-3-------------3------3--0---------3------------3------3-|

e|---------------------------------------------------------------------------|
B|----------------------0----------------------------------------------------|
G|-------------0--------2----------------------------------------------------|
D|----------------------1----------9-8----------9-8---------2----------------|
A|---------0-1-------0--2----5-6-7--------5-6-7---------0--------------------|
E|-0-----3---------3--------------------------------------3---0----3---3---0-|

e|----------------------------------------------------------------------------|
B|----------------------------------------------------------------------------|
G|---0----------------0--4-3--------------------------------------------0-4-3-|
D|-2----------------2----------------------------0--------------------2-------|
A|-------------------------------------------------1--------------------------|
E|-----3--3-(3)--0----------------3--3-(3)--0-----------3--3-(3)--0-----------|

e|---------------------------------------------------------------------------|
B|---------------------------------------------------------------------------|
G|-------------------0--------------0---------------------------0---------0--|
D|-----------------2-----------2--0-------------------------2-0-------2-0----|
A|---------------------0-1--------------2-0----2-0---------------------------|
E|--3--3-(3)--0---------------3-------------3------3--0---3---------3--------|
                     (6:48 play guitar 2 from earlier)
e|---------------------------------------------------------------------------|
B|---------------------------------------------------------------------------|
G|---------------------------------------------------------------------9-----|
D|-------2-----------------------------------------------------------9-------|
A|-2-0-------2-0-----------------2--0----2-0----2-0----2-0---------7---------|
E|-----3---------3--0------0--3--------------3------3------3--0--------------|

e|---------------------------------------------------------------------------|
B|---------------------------------------------------------------------------|
G|---------------------------------------------------------------------------|
D|--7^9r-7-(outro-noise)-----------------------------------------------------|
A|---------------------------------------------------------------------------|
E|---------------------------------------------------------------------------|

| /  slide up
| \  slide down
| h  hammer-on
| p  pull-off
| ~  vibrato
| +  harmonic
| x  Mute note
| b  bend
| r  release to original note
=============================================================================
            
Hard to play? Try these video lessons and learn fast. | Correct




comments powered by Disqus
↑ Back to top | Tablatures and chords are parodies/interpretations of the original songs. You may use it for private study, scholarship, research or language learning purposes only