» » »

High Command Tabs (ver.1)

Artists:  A B C D E F G H I J K L M N O P Q R S T U V W X Y Z # 

High Command Tabs (ver.1)

Earth
Rating:
5/5 (2 votes)

Hard to play? Try these video lessons and learn fast.
                -----------------------------------------------------------------------------
-----------------------------------------------------------------------------

Tuning: drop D

e|---------------------------------------------------------------------------|
B|---------------------------------------------------------------------------|
G|---------------------------------------------------------------------------|
D|---------------------------------------------------------------------------|
A|-5-5--5h7-5p3-5h8p5-5--3-3-3/5---------------------------------------------|
D|-0-0----------------0--0-0-0-0---------------------------------------------|
(about 1 min in)
e|---------------------------------------------------------------------------|
B|---------------------------------------------------------------------------|
G|---------------------------------------------------------------------------|
D|---------------------------------------------------------------------------|
A|-7-7h8-5--7-7h8-5--7-7h8-5--7-7h8-5--10-10-101010\5------------------------|
D|-0--------0--------0--------0---------------------0------------------------|

| /  slide up
| \  slide down
| h  hammer-on
| p  pull-off
| ~  vibrato
| +  harmonic
| x  Mute note
=============================================================================
            
Hard to play? Try these video lessons and learn fast. | Correct




comments powered by Disqus
↑ Back to top | Tablatures and chords are parodies/interpretations of the original songs. You may use it for private study, scholarship, research or language learning purposes only