» » »

Earshot, Wait Bass tabs (ver.2)

Artists:  A B C D E F G H I J K L M N O P Q R S T U V W X Y Z # 

Wait Bass tabs (ver.2)

Earshot Tabs
 Rating:
4/5 (4 votes)
Wait lessons Tabs too difficult? Try these video lessons and learn fast
                ===============================================================================
===============================================================================

Intro: x2
G|---------------------------------|
D|---------------------------------|
A|---------------------------------| x3
E|--5-----------------7/9----------|
B|-----2-22--3--2-22-------2-------|

G|---------------------------------|
D|---------------------------------|
A|---------------------------------|
E|--5-----------------7/9-10-9-----|
B|-----2-22--3--2-22------------2--|

Verse: x8
G|-----------------------------|
D|-----------------------------|
A|-----------------------------|
E|--5--------------------------|
B|-----22-2--3--22-2--5/7-2----|

Chorus: x4  (Play them as 8th notes)
G|-------------------------------------|
D|-------------------------------------|
A|-------------------------------------|
E|-------------------55555555-77777777-|
B|-22222222-55555555-------------------|

-->Verse x8
-->Chorus x4

Bridge: Repeat many times
G|-------|
D|-------|
A|-------|
E|---5-4-|
B|-2-----|

G|------------------------|
D|------------------------|
A|------------------------| x3
E|------------------------|
B|--3p2-22--3p2-22--3p2-2-|

G|-------------|
D|-------------|
A|-------------|
E|-------------|
B|-2222-x-2222-|

-->Chorus x16

Outro:
G|-------------------------------|
D|-------------------------------|
A|-------------------------------| x3
E|-5-----------------7/9---------|
B|----2-22--3--2-22------2-------|

G|-------------|
D|-------------|
A|-------------|
E|-------------|
B|-2222-x-2222-|

===============================================================================
| /  slide up
| \  slide down
| h  hammer-on
| p  pull-off
| ~  vibrato
| +  harmonic
| x  Mute note
===============================================================================
            
Submit corrections

comments powered by Disqus
↑ Back to top | Earshot Bass for Wait. Lyrics for acoustic guitar and electric guitar. Tablatures and chords are parodies/interpretations of the original songs. You may use it for private study, scholarship, research or language learning purposes only