» » »

Wait Bass tabs (ver.1)

Artists:  A B C D E F G H I J K L M N O P Q R S T U V W X Y Z # 

Wait Bass tabs (ver.1)

Earshot
Rating:
5/5 (2 votes)

Hard to play? Try these video lessons and learn fast.
                ===============================================================================
===============================================================================

Intro: x2
Gb|----------------------------------|
Db|----------------------------------|
Ab|----------------------------------| x3
Db|--8--0-00--1--0-00--10/12-0-------|

Gb|-----------------------------------|
Db|-----------------------------------|
Ab|-----------------------------------|
Db|---8--0-00--1--0-00--10/12-13-12-0-|

Verse: x8
Gb|-----------------------------|
Db|-----------------------------|
Ab|-----------------------------|
Db|--8--00-0--1--00-0--3/5-0----|

Chorus: x4  (Play them as 8th notes)
Gb|---------------------------------------------|
Db|---------------------------------------------|
Ab|---------------------------------------------|
Db|-00000000-33333333-88888888-1010101010101010-|

-->Verse x8
-->Chorus x4

Bridge: Repeat many times
Gb|-------|
Db|-------|
Ab|-------|
Db|-0-8-7-|

Gb|-------------------------|
Db|-------------------------|
Ab|-------------------------| x3
Db||--1p0-00--1p0-00--1p0-0-|

Gb|-------------|
Db|-------------|
Ab|-------------|
Db|-0000-x-0000-|

-->Chorus x16

Outro:
Gb|---------------------------------|
Db|---------------------------------|
Ab|---------------------------------| x3
Db|-8--0-00--1--0-00--10/12-0-------|

Gb|-------------|
Db|-------------|
Ab|-------------|
Db|-0000-x-0000-|

===============================================================================
| /  slide up
| \  slide down
| h  hammer-on
| p  pull-off
| ~  vibrato
| +  harmonic
| x  Mute note
===============================================================================
            
Hard to play? Try these video lessons and learn fast. | Correct




comments powered by Disqus
↑ Back to top | Tablatures and chords are parodies/interpretations of the original songs. You may use it for private study, scholarship, research or language learning purposes only