» » »

Earshot, Unfortunate One Tabs (ver.1)

Artists:  A B C D E F G H I J K L M N O P Q R S T U V W X Y Z # 

Unfortunate One Tabs (ver.1)

Earshot Tabs
 Rating:
4/5 (4 votes)
Unfortunate One lessons Tabs too difficult? Try these video lessons and learn fast
                drop-d & 1/2 step down, low to high:
Db Ab Db Gb Bb eb

Intro (x2)

|----------------------------------------------------------------------------------|
|----------------------------------------------------------------------------------|
|--------------------------------1------------------------------------------------|
|----------------------------------------------------------------------------------|
|----------------------------------------------------------------------------------|
|--3---3------3p1---1---1------1---0------0------0h1p0------6---6\3--|

Chorus (x4)

|----------------------------------------------------------------------------------|
|----------------------------------------------------------------------------------|
|----------------------------------------------------------------------------------|
|--3---3------3p1---1---1---1---1---0------0------0h1p0------6---6---|
|--3---3------3p1---1---1---1---1---0------0------0h1p0------6---6---|
|--3---3------3p1---1---1---1---1---0------0------0h1p0------6---6---|

after playing the chorus for the fourth time hit this and let it ring until the verse:

|------|
|------|
|------|
|--3--|
|--3--|
|--3--|

Verse (x16, palm mute whole verse)

|----------------------------|
|----------------------------|
|----------------------------|
|----------------------------|
|----------------------------|
|--3---4------4---6---4--|

Chorus (x4)

Post-Chorus (hit this note a bunch till the verse)

|------|
|------|
|------|
|--3--|
|------|
|------|
Verse (x16, palm mute whole verse)

Chorus (x4)

Post-Chorus (use feedback on that last 333xxx chord of the chorus)

Chorus (x8)

Outro (use the same rhythm as the intro/chorus

|-------------------------------------------------------------------------------------|
|-------------------------------------------------------------------------------------|
|--5------------------3--------------------2----------------------------------------|
|--3------------------1--------------------0----------------------------------------|
|-------------------------------------------------------------------------------------|
|-------------------------------------------------------------------------------------|

THE END
            
Submit corrections

comments powered by Disqus
↑ Back to top | Earshot Tabs for Unfortunate One. Lyrics for acoustic guitar and electric guitar. Tablatures and chords are parodies/interpretations of the original songs. You may use it for private study, scholarship, research or language learning purposes only