>
 >
Tongue Tied

Tongue Tied Guitar Tabs

Earshot - Tongue Tied chords, tabs, tablatures, lyrics

Guitar lessons | Add/correct | Request | Top 50 tabs Artists:  A B C D E F G H I J K L M N O P Q R S T U V W X Y Z 0-9

Tongue Tied Guitar Tabs – Earshot

CD, Sheet music, Poster

Do you like Tongue Tied? Share with your friends now
Bass TabsTabsTabs v2
----------------------------------------------------------------------------
----------------------------------------------------------------------------
				This is an awesome Earshot song (my 
favorite actually) but nobody tabbed it!...until now. Please leave 
comments and rate, I would really appreciate it! E-mail me with any
questions. Also, the timing is NOT shown correctly in the tab. 
It is very easy to figure out, but if you have trouble with 
it e-mail me.

Tuning: Normal

 Intro- Guitar 1   (eighteens and nineteens)
e|------------------------------------------------------------------------|
B|-------19----19----------181818-----------------------------------------|
G|-181818--1818--18-x4----------------------------------------------------|
D|---------------------------------16-------------------------------------|
A|---------------------------------14-------------------------------------|
E|---------------------------------14-------------------------------------|

Intro- Guitar 2
e|----19-21------22--20---------------------------------------------------|
B|------------------------------------------------------------------------|
G|------------------------------------------------------------------------|
D|------------------------------------------------------------------------|
A|------------------------------------------------------------------------|
E|------------------------------------------------------------------------|

 Intro pt. 2
e|------------------------------------------------------------------------|
B|------------------------------------------------------------------------|
G|----------------4-------------------------------------------------------|
D|-4----7----0----4-x8---4----7----0----2---------------------------------|
A|-4-x8-7-x8-0-x8-2------4-x8-7-x8-0-x8-2-x8------------------------------|
E|-2----5----0-----------2----5----0----2---------------------------------|

Verse- Guitar 1
e|------------------------------------------------------------------------|
B|------------------------------------------------------------------------|
G|-------------44----------------44---------------------------------------|
D|-44--77--00--44----44--77--00--44---------------------------------------|
A|-44--77--00--22----44--77--00--22---------------------------------------|
E|-22--55--00--------22--55--00-------------------------------------------|

Verse- Guitar 2
e|------------------------------------------------------------------------|
B|-------19----19-------------19----19------------------------------------|
G|-181818--1818--18-x7--181818--1818--------------------------------------|
D|------------------------------------------------------------------------|
A|------------------------------------------------------------------------|
E|------------------------------------------------------------------------|

Pre-Chorus- Guitar 1
e|--------------------------------------------------|
B|--------------------------------------------------|
G|--------------------------------------------------|
D|--------------------------------------------------|x2
A|------9---9p8----11---11p8----9---9p8----9---9p8--|
E|---888-88-----999--99------888-88-----888-88------|
pm.  ... ..     ...  ..      ... ..     ... ..

Pre-Chorus- Guitar 2
e|--------------------------------------------------|
B|--------------------------------------------------|
G|------------------------------44444444------------|
D|44444444--77777777--00000000--44444444------------|x2
A|44444444--77777777--00000000--22222222------------|
E|22222222--55555555--00000000----------------------|
  ........  ........  ........  ........             

1st Chorus
e|-------------------------------------------------------------------------|
B|-------------------------------------------------------------------------|
G|----------------4--------------------------------------------------------|
D|-4----7----0----4-x8---4----7----0----2------4----7----0----2------------|
A|-4-x8-7-x8-0-x8-2------4-x8-7-x8-0-x8-2-x8---4-x8-7-x8-0-x8-2------------|
E|-2----5----0-----------2----5----0----2------2----5----0----2------------|

(Verse 2)- Guitar 1 plays Verse 1(Guitar 1) twice
           Guitar 2 plays Pre-Chorus(Guitar 1) twice

Pre-Chorus- Guitar 1
e|-------------------------------------------------------------------------|
B|------19----19---------------------------------19----19---------19----19-|
G|181818--1818--18-x4----------------------181818--1818--18-181818--1818---|
D|-------------------------------------------------------------------------|
A|----------------------9--9p8----11--11p8---------------------------------|
E|-------------------888-88----999--99-------------------------------------|
p.m.                 ... ..    ...  ..

Pre-Chorus- Guitar 2
e|-------------------------------------------------------------------------|
B|-------------------------------------------------------------------------|
G|------------------------------44444444-----------------------44444444----|
D|44444444--77777777--00000000--44444444---44---77---00000000--44444444----|
A|44444444--77777777--00000000--22222222---44---77---00000000--22222222----|
E|22222222--55555555--00000000-------------22---55---00000000--------------|
  ........  ........  ........  ........             ........  ........

2nd Chorus
e|--------------------------------------------|
B|--------------------------------------------|
G|----------------4---------------------------|
D|-4----7----0----4-x8---4----7----0----2-----|x2
A|-4-x8-7-x8-0-x8-2------4-x8-7-x8-0-x8-2-x8--|
E|-2----5----0-----------2----5----0----2-----|

Bridge- Guitar 1                                            end on this
e|----------------------------------------------------|   |--------------|
B|----------------------------------------------------|   |--------------|
G|----------------------------------------------------|   |--------------|
D|-4-4-4-4-4-4--4-4-4-4-4-4--7-7-7-7-7-7--2-2-2-2-2-2-|x3 |-4------------|
A|-4-4-4-4-4-4--4-4-4-4-4-4--7-7-7-7-7-7--2-2-2-2-2-2-|   |-4-(let ring)-|
E|-2-2-2-2-2-2--2-2-2-2-2-2--5-5-5-5-5-5--2-2-2-2-2-2-|   |-2------------|

Bridge- Guitar 2 (not sure on this , but it's close if not perfect)
e|-----------------------------------------------------|
B|-----------------------------------------------------|
G|---8----12-----8-12------12--------------------------|
D|-----12---------------12-----------------------------|x3
A|-7-----------7------7--------------------------------|
E|-----------------------------------------------------|
            
(Play second chorus twice)

Outro- Guitar 1
e|-----------------------------------------------------|
B|-----------------------------------------------------|
G|----------------------------------------4-4-4-4-4-4--|
D|-4-4-4-4-4-4--7-7-7-7-7-7--0-0-0-0-0-0--4-4-4-4-4-4--|
A|-4-4-4-4-4-4--7-7-7-7-7-7--0-0-0-0-0-0--2-2-2-2-2-2--|
E|-2-2-2-2-2-2--5-5-5-5-5-5--0-0-0-0-0-0---------------|

Outro- Guitar 1 (con't)
e|-------------------------------------------------------------------------|
B|-------------------------------------------------------------------------|
G|-------------------------------------------------------------------------|
D|-4-4-4-4-4-4--7-7-7-7-7-7--0-0-0-0-0-0--2-2-2-2-2-2---4--rings,and-------|
A|-4-4-4-4-4-4--7-7-7-7-7-7--0-0-0-0-0-0--2-2-2-2-2-2---4--fades out-------|
E|-2-2-2-2-2-2--5-5-5-5-5-5--0-0-0-0-0-0--2-2-2-2-2-2---2------------------|


Outro- Guitar 2 (not sure about this part, but it's close if not perfect)
e|----------------------------12--------12-10-9-11-10-9--------------------|
B|10-10-10-10-10-10--12-12-12----11-10-----------------11b-11h12p11-10-9---|
G|-------------------------------------------------------------------------|
D|-------------------------------------------------------------------------|
A|-------------------------------------------------------------------------|
E|-------------------------------------------------------------------------|

Outro- Guitar 2 (con't)
e|--------------------------------12-10-9-8b10--11-9-----------------------|
B|10-10-10-10-10-10--12-12h15-17~--------------------12p10-10h12-9---------|
G|-------------------------------------------------------------------------|
D|------------------------------------------------------rings,and fades out|
A|-------------------------------------------------------------------------|
E|-------------------------------------------------------------------------|



| .  palm mute
| /  slide up
| \  slide down
| h  hammer-on
| p  pull-off
| ~  vibrato
| +  harmonic
| x  Mute note
============================================================================





Comments


Popular Earshot tabs & chords
Get Away Bass Tabs
Misery Bass Tabs
Wait 1 Bass Tabs
Headstrong Tabs
Misery Tabs
Not Afraid 1 Tabs
Someone 1 Tabs
Tongue Tied 1 Tabs
Unfortunate Tabs
Unfortunate One Tabs


Song lyrics



↑ Back to top | Tablatures and chords are parodies/interpretations of the original songs. You may use it for private study, scholarship, research or language learning purposes only
© 2014 AZChords.com Contact us | Privacy policy | DMCA | Add/correct tabs | Request tabs | Top 50 tabs