» » »

Someone Tabs (ver.2)

Artists:  A B C D E F G H I J K L M N O P Q R S T U V W X Y Z # 

Someone Tabs (ver.2)

Earshot
Rating:
5/5 (2 votes)

Hard to play? Try these video lessons and learn fast.
                
BAND: EARSHOT

TUNING: DROP D


i was looking for this song to play but couldn't find it
so i tabbed it myself. its fairly easy to play.


palm mute during verses

chords are:


e---------------------------|
B---------------------------|
G--6-------2-------5--------|
D--6---2---2---6---5--------|
A--4---2---0---6---3--------|
D------2-------6------------|

the timing is not included in the above riff
this next riff has the timing if you cant get it
if get the timing you can skip this riff


e-----      -----       -----      -----|
B-----      -----       -----      -----|
G--6--      --6--       -----      -----|
D--6--  X8  --6--  X8   --2--  X8  --2--|  X8
A--4--      --4--       --2--      --2--|
D-----      -----       --2--      --2--|

------      -----       -----      -----|
---2--      --2--       -----      --5--|
---2--  X8  --2--  X8   --6--  X8  --5--|  X8
---0--      --0--       --6--      --3--|
------      -----       --6--      -----|

and this would be the chorus:

e------------------|
B------------------|
G--6-------4---6---|   repeat as needed
D--6---2---4---6---|
A--4---2---2---4---|
D------2-----------|


thats basically it
enjoy!
            
Hard to play? Try these video lessons and learn fast. | Correct




comments powered by Disqus
↑ Back to top | Tablatures and chords are parodies/interpretations of the original songs. You may use it for private study, scholarship, research or language learning purposes only