» » »

Earshot, Should've Been There Tabs (ver.1)

Artists:  A B C D E F G H I J K L M N O P Q R S T U V W X Y Z # 

Should've Been There Tabs (ver.1)

Earshot Tabs
 Rating:
4/5 (4 votes)
Should've Been There lessons Tabs too difficult? Try these video lessons and learn fast
                                       Title: Should've Been There


                       Standard Tuning 1/2 Step Down
                              Eb Ab Db Gb Bb Eb


   Verse

Eb -------------------------------------------------------------------|
Bb ----------3--------------------3--------------------3--------------|
Gb ------0--------0---0-------0--------0---0-------0--------0---0-----|
Db ----2---2--------2-------1---1--------1-------0---0--------0-------|
Ab -------------------------------------------------------------------|
Eb -------------------------------------------------------------------|

Eb -------------------------------------------------------------------|
Bb ----------3--------------------------------------------------------|
Gb ------0--------0---0-----------------------------------------------|
Db ----0---0--------0-------------------------------------------------|
Ab -------------------------------------------------------------------|
Eb -------------------------------------------------------------------|


   Chorus

Eb ----0----0---0-0--0-0-0---0--0-0----0----0---0-0--0-0-0---0--0-0---|
Bb ----3----3---3-3--3-3-3---3--3-3----3----3---3-3--3-3-3---3--3-3---|
Gb ----2----2---2-2--2-2-2---2--2-2----0----0---0-0--0-0-0---0--0-0---|
Db ----0----0---0-0--0-0-0---0--0-0----2----2---2-2--2-2-2---2--2-2---|
Ab ----0----0---0-0--0-0-0---0--0-0----2----2---2-2--2-2-2---2--2-2---|
Eb ------------------------------------0----0---0-0--0-0-0---0--0-0---|


   Bridge

Eb ----0----0---0-0--0-0-0----0---0-0---0-0---------------------------|
Bb ----1----1---1-1--1-1-1----3---3-3---3-3---------------------------|
Gb ----0----0---0-0--0-0-0----2---2-2---2-2---------------------------|
Db ----2----2---2-2--2-2-2----0---0-0---0-0---------------------------|
Ab ----3----3---3-3--3-3-3----0---0-0---0-0---------------------------|
Eb -------------------------------------------------------------------|


   Outro

Eb ----0-0~---0-0~----------------------------------------------------|
Bb ----0-0~---0-0~----------------------------------------------------|
Gb ----0-0~---0-0~----------------------------------------------------|
Db ----2-2~---2-2~----------------------------------------------------|
Ab ----2-2~---2-2~----------------------------------------------------|
Eb ----0-0~---0-0~----------------------------------------------------|

   NOTE: Listen to song for the strum pattern during the chorus.
            
Submit corrections

comments powered by Disqus
↑ Back to top | Earshot Tabs for Should've Been There. Lyrics for acoustic guitar and electric guitar. Tablatures and chords are parodies/interpretations of the original songs. You may use it for private study, scholarship, research or language learning purposes only