» » »

My Time Tabs (ver.1)

Artists:  A B C D E F G H I J K L M N O P Q R S T U V W X Y Z # 

My Time Tabs (ver.1)

Earshot
Rating:
0/5 (0 votes)

Hard to play? Try these video lessons and learn fast.
                Band- Earshot
Song- My Time

Tuning: Drop D

Key:
// or \\ slide up or down and immediately strum again
H.A. artificial harmonics
b bend
r release

INTRO, distortion:
|-------------------------|    |--------------------------|
|-------------------------|    |--------------------------|
|-------------------------| x3 |--------------------------|
|-0-0-3-0-2--0-1-2--0-1-2-|    |-0-0-3-0-2--5-5-5-5-5-5-5-|
|-0-0-3-0-2--0-1-2--0-1-2-|    |-0-0-3-0-2--5-5-5-5-5-5-5-|
|-0-0-3-0-2--0-1-2--0-1-2-|    |-0-0-3-0-2--5-5-5-5-5-5-5-|
                                            A.H. . . . . .

VERSE1, distorted:
|-------------------------|    |-------------------------|
|-------------------------|    |-------------------------|
|-------------------------| x3 |-------------------------|
|-0-0-3-0-2--0-2-3--0-2-3-|    |-0-0-3-0-2--3-3-3--3-5~~-|
|-0-0-3-0-2--0-2-3--0-2-3-|    |-0-0-3-0-2--3-3-3--3-5~~-|
|-0-0-3-0-2--0-2-3--0-2-3-|    |-0-0-3-0-2--3-3-3--3-5~~-|
                                            A.H. .

BRIDGE1, distorted:
|-------------------------------------------------------------------------------|
|-------------------------------------------------------------------------------|
|-------------------------------------------------------------------------------| x2
|-0-0-3-5--0-8-0-6-0-3-5--5-0-0-3-5--5-0-0-0-3-5--5-0-0-3-5--0-5-3~~--0-3-5-0-0-|
|-0-0-3-5--0-8-0-6-0-3-5--5-0-0-3-5--5-0-0-0-3-5--5-0-0-3-5--0-5-3~~--0-3-5-0-0-|
|-0-0-3-5--0-8-0-6-0-3-5--5-0-0-3-5--5-0-0-0-3-5--5-0-0-3-5--0-5-3~~--0-3-5-0-0-|

PRE- CHORUS: This part is tricky, there are 3 things going on, first the bass part,
a second guitar doing wacky noises and the main guitar doing some fill ins.

GUITAR2
Strum fast
|--------------------------------------------------------------------------------|
|--------------------------------------------------------------------------------|
|-7-7-7-7-7-7-7-7-7-7-7-7-7-7-7-7-7-5//8--7-7-7-7-7-7-7-7-7-7-7-7-7-7-7-7-7-5\\6-|
|--------------------------------------------------------------------------------|
|-5-5-5-5-5-5-5-5-5-5-5-5-5-5-5-5-5-5//6--5-5-5-5-5-5-5-5-5-5-5-5-5-5-5-5-5-5\\4-|
|--------------------------------------------------------------------------------|

GUITAR1
Fill ins, listen to the song, you’ll know what I’m talking about. Still distortion.
|---------|
|---------|
|---------|
|-7\\6\\5-|
|-5\\4\\3-|
|---------|

CHORUS

GUITAR1
|----------------------------------------|    |-----|
|----------------------------------------|    |-----|
|----------------------------------------| x4 |-----| &
|-0--12--0-10-12-0-10-12--8-8-8-3-3-3//5-|    |-0-0-|
|-0--12--0-10-12-0-10-12--8-8-8-3-3-3//5-|    |-0-0-|
|-0--12--0-10-12-0-10-12--8-8-8-3-3-3//5-|    |-0-0-|
 Fourth time add this ending & (Chorus+&)

GUITAR2
|-----------------------------------------------|
|-----------------------------------------------|
|-14-14-14-br14-14-12---------------------------|
|-----------------------------------------------|
|-----------------------------------------------|
|-----------------------------------------------|
Not sure about this part

PRE- CHORUS

CHORUS
Without & ending

VERSE1 x2

CHORUS
Without & ending

This is the part where the solo goes put I am not going to tab it for three reasons
1) I have never tabbed a solo and it would be way off.
2) If you could not figure this song out by yourself chances are you cannot even
play a solo.
3) That s***t is f***ing whack, just make up what ever.

VERSE1

BRIDGE2
|------------------------------------------------------------------------------------|
|------------------------------------------------------------------------------------|
|------------------------------------------------------------------------------------|
|-0-0-3-5--5-0-0-0-3-5--5-0-0-3-5--0-8-0-6-0-3-5--5-0-0-3-5--5-0-0-0-3-5--5-0-0-3-5--|
|-0-0-3-5--5-0-0-0-3-5--5-0-0-3-5--0-8-0-6-0-3-5--5-0-0-3-5--5-0-0-0-3-5--5-0-0-3-5--|
|-0-0-3-5--5-0-0-0-3-5--5-0-0-3-5--0-8-0-6-0-3-5--5-0-0-3-5--5-0-0-0-3-5--5-0-0-3-5--|

---------------|
---------------|
---------------| x2
0-5-3~~--0-3-5-|
0-5-3~~--0-3-5-|
0-5-3~~--0-3-5-|

CHOURUS
....ONE MORE TIMEEEEEEEEEEEEEEEE!!!!!!!!!.... yeah!

GUITAR2
Does some fast picking during the last chorus just throw in some bends, maybe an
effect and you are all set to go.
|-------------------------------------------------|
|-------------------------------------------------|
|-14-14-14-14-14-14-b14-14-14-14-14-r14-14-14-etc-|
|-------------------------------------------------|
|-------------------------------------------------|
|-------------------------------------------------|

END
|-0-|
|-0-|
|-0-|
|-0-|
|-0-|
|-0-|
            
Hard to play? Try these video lessons and learn fast. | Correct




comments powered by Disqus
↑ Back to top | Tablatures and chords are parodies/interpretations of the original songs. You may use it for private study, scholarship, research or language learning purposes only