» » »

Early November, Wearing The Tie Tabs (ver.1)

Artists:  A B C D E F G H I J K L M N O P Q R S T U V W X Y Z # 

Wearing The Tie Tabs (ver.1)

Early November Tabs
Rating:
0/5 (0 votes)
Hard to play? Try these video lessons and learn fast.
                -------------------------------------------------------------------------------
                             WEARING THE TIE - The Early November
-------------------------------------------------------------------------------

Tuning: Half Step Down (e flat)

This is a really simple song, not too different from "Every Night's Another 
Story," and I'm pretty sure about all of it.

Rythm Guitar: Intro/Verse/Chorus/Bridge
     Listen for timing of chord change

eb|---------------------------------------------------------------------------|
Bb|---------------------------------------------------------------------------|
Gb|-9-------------------------------------------------------------------------|
Db|-9------9------------------------------------------------------------------|
Ab|-7------9------------------------------------------------------------------|
Eb|-7------7------------------------------------------------------------------|

Lead Guitar: Solo
eb|---------------------------------------------------------------------------|
Bb|---------------------------------------------------------------------------|
Gb|--0-7-0-5-0-3-0-2----------------------------------------------------------|
Db|---------------------------------------------------------------------------|
Ab|---------------------------------------------------------------------------|
Eb|---------------------------------------------------------------------------|

Verse:

I fell down thirty feet of stairs,
Landed in a hole buried under cloak.
And as I grow I tried to let this go,
But I cannot hide under half-shut eyes.

Chorus:
And I feel it calling me again,
In winter ice I stand.
And I feel it calling me again,
So what will it take
To make this finally the end?

Verse:
Carving snow, I found myself a glove.
So I took it home and my body, mind and soul.
We're draped in robes like soft and flowing tones
Through a combo and it's quarter cranked again

Pre Chorus: Play verse chords
And this time I follow my own lines.

Chorus:
And I feel it calling me again,
In winter ice I stand.
I feel it calling me again,
So what will it take
To make this finally the end?


Bridge/Solo: 
It's the breaking point, the crossed out, the fine lines we hide, the lies
Medicine, and crooked ties define why I'm not who you thought you liked

It's the breaking point, the crossed out, the fine lines we hide, the lies
Medicine, and crooked ties define why I'm not who you thought you liked

It's the breaking point, the crossed out, the fine lines we hide, the lies
Medicine, and crooked ties define why I'm not who you thought you liked


************************************

| /   slide up
| \   slide down
| h   hammer-on
| p   pull-off
| ~   vibrato
| +   harmonic
| x   Mute note
| b   Bend
| pb  Pre-bend
| br  Bend release
| pbr Pre-bend release
| brb Bend release bend

************************************
            

comments powered by Disqus
↑ Back to top | Early November Tabs for Wearing The Tie. Lyrics for acoustic guitar and electric guitar. Tablatures and chords are parodies/interpretations of the original songs. You may use it for private study, scholarship, research or language learning purposes only