» » »

Truth Is Tabs (ver.1)

Artists:  A B C D E F G H I J K L M N O P Q R S T U V W X Y Z # 

Truth Is Tabs (ver.1)

Early November
Rating:
0/5 (0 votes)

Hard to play? Try these video lessons and learn fast.
                Intro/Verse/Outro
eb|--------2---------2----------2----------2-----------7----------7--------|
Bb|----------3---------3----------3----------3-----------8----------8------|
Gb|----0----------0---------0----------0-----------0----------0------------|
Db|------------------------------------------------------------------------|
Ab|------------------------------------------------------------------------|
Eb|--3---3------3---3-----3---3------3---3-----3/8---8------8---8-----8----|

eb|------7--------7------------2---------2----------2----------2-----------|
Bb|--------8--------8------------3---------3----------3----------3---------|
Gb|---0--------0-----------0---------0----------0----------0---------------|
Db|------------------------------------------------------------------------|
Ab|------------------------------------------------------------------------|
Eb|-8---8----8---8-----8\3---3-----3---3------3---3------3---3-----3/8-----|

eb|-------7----------7---------7--------7----------------------------------|
Bb|---------8----------8---------8--------8--------------------------------|
Gb|---0----------0---------0---------0-------------------------------------|
Db|------------------------------------------------------------------------|
Ab|------------------------------------------------------------------------|
Eb|-8---8------8---8-----8---8-----8---8-----------------------------------|

eb|-------3---------3--------3---------3---------3--------3---------5------|
Bb|---------3---------3--------3---------3---------3--------3---------3----|
Gb|---0---------0---------0---------0---------0--------0---------0---------|
Db|------------------------------------------------------------------------|
Ab|-0---0-----0---0-----0---0-----0---0-----3---3----3---3-----3---3-------|
Eb|------------------------------------------------------------------------|

eb|------5---------3-------3--------3--------3---------3---------5------|
Bb|--------3--------3--------3--------3-------3---------3----------3----|
Gb|---0--------0--------0-------0---------0--------0--------0-----------|
Db|---------------------------------------------------------------------|
Ab|-3---3-----0--0----0---0----0--0-----0---0----3---3-----3--3---------|
Eb|---------------------------------------------------------------------|

when the drums come in you can play these chords or the chords above but strummed.
eb|--x--x--x--x-----0--x--0--x-----|
Bb|--3--3--3--3-----1--3--1--3-----|
Gb|--0--0--0--0--x2-2--0--2--0-----|
Db|--0--2--0--2-----2--2--2--2-----|
Ab|--2--3--2--3-----0--3--0--3-----|
Eb|--3-----3--------0-----0--------|
            
Hard to play? Try these video lessons and learn fast. | Correct




comments powered by Disqus
↑ Back to top | Tablatures and chords are parodies/interpretations of the original songs. You may use it for private study, scholarship, research or language learning purposes only