» » »

Course Of Human Life Tabs (ver.1)

Artists:  A B C D E F G H I J K L M N O P Q R S T U V W X Y Z # 

Course Of Human Life Tabs (ver.1)

Early November
Rating:
5/5 (4 votes)

Tabs too difficult? Try these video lessons and learn fast.
                Tuning: Half-step down, Dropped D

Intro:

e|-4p0---0-----0-|  
B|-0-----4p0---0-|  
G|-6-----6-----6-|  
D|-------------6-|  
A|---------------|  
D|---------------|  

e|----------------------|
B|----------------------|
G|-6666-66666-66666-6-6-|
D|-xxxx-xxxxx-xxxxx-x-x-|
A|-4444-44444-44444-4-4-|
D|----------------------|
  (bend that last one)

e|---------------------------------------|
B|---------------------------------------|
G|-14*--13*--11*--9*--16*--14*--13*--11*-|
D|--x----x----x---x----x----x—---x---x---|
A|-12---11----9---7---14---12---11---9---|
D|---------------------------------------|
  repeat 2x

e|----------|	e|------------------------------|
B|----------|	B|------------------------------|
G|-18*--14*-|	G|-16*---14*---13*--11*--6*---6-|
D|--x----x--|	D|--x-----x-----x----x---x----x-|
A|-16---12—-|	A|-14----12----11----9---4----4-|
D|----------|	D|------------------------------|
  repeat 3x	  (bend the last one)

Verse:

“It caught us by surprise…”
e|-----------------4p0-------------|
B|---------------------4p0---------|
G|-------66*---------------6---66*-|
D|-77*---66----77*-------------66--|
A|-77----44----77--------------44--|
D|-77----------77------------------|
  repeat 2x

“And we’ve come so far…”
e|------------------------|
B|------------------------|
G|---------------------6*-|
D|-6*---7*---4*---7*---x--|
A|-4----7----4----7----4--|
D|-4----7----4----7-------|

“Out of everyone, everywhere…”

“We can say we found our own way.”
e|-----------------------------------|	|----|	
B|-----------------------------------|	|----|
G|-16*---14*---13*---11*---18*---14*-|	|-6*-|
D|--x-----x-----x-----x-----x-----x--|	|-x--|
A|-14----12----11-----9----16----12--|	|-4--|
D|-----------------------------------|	|----|

Interlude:
(Guitar 1)

e|-4h5--5--5p4h5/7--7--7---4h5--5--5p4---0---/11---------------14----------14----|
B|-----------------------------------------------12---------12----12----12----12-|
G|--------------------------------------------------13---13----------13----------|
D|-------------------------------------------------------------------------------|
A|-------------------------------------------------------------------------------|
E|-------------------------------------------------------------------------------|

e|-------11----------11----------14----------14----------11----------11----|
B|----12----12----12----12----12----12----12----12----12----12----12----12-|
G|-13----------13----------13----------13----------13----------13----------|
D|-------------------------------------------------------------------------|
A|-------------------------------------------------------------------------|
E|-------------------------------------------------------------------------|

I don’t know both guitars in the interlude, but that’s about it.  I love this song.  Enjoy!
            
Tabs too difficult? Try these video lessons and learn fast.


comments powered by Disqus
↑ Back to top | Tablatures and chords are parodies/interpretations of the original songs. You may use it for private study, scholarship, research or language learning purposes only