» » »

Early November, Tell Me Why Tabs (ver.2)

Artists:  A B C D E F G H I J K L M N O P Q R S T U V W X Y Z # 

Tell Me Why Tabs (ver.2)

Early November Tabs
 Rating:
4/5 (4 votes)
Tell Me Why lessons Tabs too difficult? Try these video lessons and learn fast
                Tell Me Why
Drop Db

Intro is just piano or what they got going on.

Intro/Chorus (Listen for Pattern)
|--------------------------|
|--------------------------|
|-------------3------------| X2
|-1-----5-----3-----3------|
|-1-X12-5-X12-1-X12-3-X12--|
|-1-----5-----------3------|


Verse

Guitar 1 (Listen For Pattern)

|--3-----10-----10-----5---|
|--4-X7--11-X7--11-X7--6-X7|
|--3-----10-----12-----5---| X2
|--------------------------|
|--------------------------|
|--------------------------|



Guitar 2

"Just like when your gone"
  Let it ring
|----------|
|----------|
|----------|
|--1--3--5-|
|--1--3--5-|
|--1--3--5-|
(Listen For Pattern) 
 Palm Muted
|--------------------------|
|--------------------------|
|-------------3------------| X2
|-1-----5-----3-----3------|
|-1-X7--5-X7--1-X7--3-X7---|
|-1-----5-----------3------|

|--------------|
|--------------|
|--------------| 
|-1-let----3---|
|-1--it----3-X8|
|-1-ring---3---|


Chorus

|--------------------------|
|--------------------------|
|-------------3------------| X2
|-1-----5-----3-----3------|
|-1-X12-5-X12-1-X12-3-X12--|
|-1-----5-----------3------|

In the background there is another guitar part,
but I can't quite figure out the exact thing.
But I arpeggiate the following chords and it sound
pretty accurate.

|--10----10--|
|--11----11--|
|--10----12--|
|------------|
|------------|
|------------|


Verse:
|----------|
|----------|
|----------| X2
|--1--3--5-|
|--1--3--5-|
|--1--3--5-|

Bridge
|-----------------------------|
|-----------------------------|
|--------------3--------------|X3
|-xx-5-xx-1-xx-3-xx-1-xx-3----|
|-xx-5-xx-1-xx-1-xx-1-xx-3-X8-|
|-xx-5-xx-1-xx---xx-1-xx-3----|  

|------|
|------|
|------|
|-1----|
|-1-X12|
|-1----|

Ending Chorus
|--------------------------|
|--------------------------|
|-------------3------------| X3
|-1-----5-----3-----3------|
|-1-X12-5-X12-1-X12-3-X12--|
|-1-----5-----------3------|

|--------------------------|
|--------------------------|
|-------------3------------| 
|-1-----5-----3-----3------|
|-1-let-5-it--1-ring3------|
|-1-----5-----------3------|
            
Submit corrections

comments powered by Disqus
↑ Back to top | Early November Tabs for Tell Me Why. Lyrics for acoustic guitar and electric guitar. Tablatures and chords are parodies/interpretations of the original songs. You may use it for private study, scholarship, research or language learning purposes only