» » »

Early November, Tell Me Why Tabs (ver.1)

Artists:  A B C D E F G H I J K L M N O P Q R S T U V W X Y Z # 

Tell Me Why Tabs (ver.1)

Early November Tabs
Rating:
0/5 (0 votes)
Tell Me Why lessons Tabs too difficult? Try these video lessons and learn fast
                (/) Slide Up  (\) Slide Down  (h) Hammer On  (p) Pull Off  (b) Bend (r) Release (v) Vibrato
Tuning = Drop D

Important!!!!

****These are just the chords for the sections of the song as labeled, you'll need
to figure out the rhythm as needed****


Chorus: Come in @ ~31 seconds
E|-----0-----------|
B|-----3-----------|
G|--4--2--6--------|
D|--4--0--7--6-----|
A|--2--0--4--2-----|
D|-----0--4--2-----| x3

End with

E|--------0--------|
B|--------3--------|
G|--------2--------|
D|--------0--2--4--|
A|--------0--2--4--|
D|--------0--2--4--|

Verse 1: Palm Muted

E|--0-----------|
B|--3-----------|
G|--2-----------|
D|--0--4--7--2--|
A|--0--4--7--2--|
D|--0--4--7--2--| x2

End with

E|--0-----|
B|--3-----|
G|--2-----|
D|--0--2--|
A|--0--2--|
D|--0--2--|

Repeat Chorus:
E|-----0-----------|
B|-----3-----------|
G|--4--2--6--------|
D|--4--0--7--6-----|
A|--2--0--4--2-----|
D|-----0--4--2-----| x3

End with

E|--------0--------|
B|--------3--------|
G|--------2--------|
D|--------0--2--4--|
A|--------0--2--4--|
D|--------0--2--4--| x2 this time

Bridge:

E|--------------------|
B|--------------------|
G|--16--14--12--7--9--|
D|--------------7--9--|
A|--14--12--10--5--7--|
D|--------------------| x4

End with

E|--0--
B|--3--
G|--2--
D|--0--
A|--0--
D|--0--

Back to chorus:

E|-----0-----------|
B|-----3-----------|
G|--4--2--6--------|
D|--4--0--7--6-----|
A|--2--0--4--2-----|
D|-----0--4--2-----| x2

E|---------------|
B|---------------|
G|--4--7--11--9--|
D|--4--7--11--9--|
A|--2--5--9---7--|
D|---------------| x2


E|-----0--------|
B|-----3--------|
G|--4--2--------|
D|--4--0--4--2--|
A|--2--0--4--2--|
D|-----0--4--2--| x1

End on

E|-----
B|-----
G|--4--
D|--4--
A|--2--
D|-----
            

comments powered by Disqus
↑ Back to top | Early November Tabs for Tell Me Why. Lyrics for acoustic guitar and electric guitar. Tablatures and chords are parodies/interpretations of the original songs. You may use it for private study, scholarship, research or language learning purposes only