» » »

Early November, Sunday Drive Tabs (ver.6)

Artists:  A B C D E F G H I J K L M N O P Q R S T U V W X Y Z # 

Sunday Drive Tabs (ver.6)

Early November Tabs
 Rating:
4/5 (4 votes)
Sunday Drive lessons Tabs too difficult? Try these video lessons and learn fast
                -------------------------------------------------------------------------------
                             Sunday Drive - The Early November
-------------------------------------------------------------------------------

Tuning: Standard tuned down a half step. What ever the hell thats called.


Strumming pattern for this song is pretty simple.

INTRO-
All down strokes for this part, but the last two chords you strum.
e|-------------------------------------|
B|-------------------------------------|
G|-7-7-7-7-7-7-7---7-7-7-7-7-7-7--7-7--|
D|-7-7-7-7-7-7-7---7-7-7-7-7-7-7--7-7--|8X
A|-0-0-0-0-0-0-0---5-5-5-5-5-5-5--5-5--|
E|-x-x-x-x-x-x-x-0-3-3-3-3-3-3-3--3-3--|

CHORUS-
Each power chord is strummed ( listen to the song and you'll figure it out).
e|------------|
B|------------|
G|---------7--|
D|-7---7---7--|3x
A|-7---7---5--|
E|-5---7---3--|


e|-------------------------------------|
B|-------------------------------------|
G|-7-7-7-7-7-7-7---7-7-7-7-7-7-7--7-7--|
D|-7-7-7-7-7-7-7---7-7-7-7-7-7-7--7-7--|6X
A|-0-0-0-0-0-0-0---5-5-5-5-5-5-5--5-5--|
E|-x-x-x-x-x-x-x-0-3-3-3-3-3-3-3--3-3--|

CHORUS...and you know its not so easy when you're all alone...
e|------------|
B|------------|
G|---------7--|
D|-7---7---7--|2x
A|-7---7---5--|
E|-5---7---3--|

...12 days gone by since i have saw you last...
e|---------------|
B|---------------|
G|-7---7---7---7-|
D|-7---7---7---7-|5x
A|-5---5---5---4-|
E|-3---5---7---x-|

End on this. strum.
e|---|
B|---|
G|-7-|
D|-7-|
A|-5-|
E|-3-|


2nd Guitar- electric guitar-Ok, you're going to have to listen to the song to exactly 
out where this starts but this is pretty much right on the dot. The 2nd guitarist plays in 
the tablature I have posted above. These are the lyrics where it starts.

...theres no more tying to make this so right...
e|19-17---12-14-10---10-12-14/15---10-12-15---10-12-15---10-12-10---12/14-10-|
B|---------------------------------------------------------------------------|
G|---------------------------------------------------------------------------|
D|---------------------------------------------------------------------------|
A|---------------------------------------------------------------------------|
E|---------------------------------------------------------------------------|

i know something is wrong i just don't know what to do...
e|-12-10-12-10-12-10---12-12/14\10---10-12-15-17---10-12-15-17-|
B|-------------------------------------------------------------|
G|-------------------------------------------------------------|
D|-------------------------------------------------------------|
A|-------------------------------------------------------------|
E|-------------------------------------------------------------|

...12 days gone by since i have saw you last...
e|-10-14-15-17---10-12-14-17/19---10-12-14/15\14---10-12-14-17-|
B|-------------------------------------------------------------|
G|-------------------------------------------------------------|
D|-------------------------------------------------------------|
A|-------------------------------------------------------------|
E|-------------------------------------------------------------|

e|-10-12-14-17-10-|
B|----------------|
G|----------------|
D|----------------|
A|----------------|
E|----------------|

Ok, there ya have it. Any questions or anything e-mail me. thanks and good luck!

-Tim


| /  slide up
| \  slide down
| h  hammer-on
| p  pull-off
| ~  vibrato
| +  harmonic
| x  Mute note
===============================================================================
            
Submit corrections

comments powered by Disqus
↑ Back to top | Early November Tabs for Sunday Drive. Lyrics for acoustic guitar and electric guitar. Tablatures and chords are parodies/interpretations of the original songs. You may use it for private study, scholarship, research or language learning purposes only