» » »

Sunday Drive Tabs (ver.5)

Artists:  A B C D E F G H I J K L M N O P Q R S T U V W X Y Z # 

Sunday Drive Tabs (ver.5)

Early November
Rating:
0/5 (0 votes)

Hard to play? Try these video lessons and learn fast.
                The other tabs for this song were okay, but this is the way I've 
always played it.


Tuning (Low To High): C# g# c# f# a# d#

Intro:(x2)
d#|-----------------------------------------------------------------|
a#|-----------------------------------------------------------------|
f#|---------7---------------7---------------7---------------7-------|
c#|---------7---------------7---------------5---------------5-------|
g#|-7---7---7---7---7---7---7---0---5---5---5---5---5---5---5---0-0-|
C#|-7---7---7---7---7---7---7---0---5---5---5---5---5---5---5---0-0-|

d#|-----------------------------------------------------------------|
a#|-----------------------------------------------------------------|
f#|---------7---------------7---------------7---------------7-------|
c#|---------7---------------7---------------5---------------5-------|
g#|-7---7---7---7---7---7---7---0---5---5---5---5---5---5---5---0-0-|
C#|-7---7---7---7---7---7---7---0---5---5---5---5---5---5---5---0-0-|
   And we wait,     above    a      road

d#|-----------------------------------------------------------------|
a#|-----------------------------------------------------------------|
f#|---------7---------------7---------------7---------------7-------|
c#|---------7---------------7---------------5---------------5-------|
g#|-7---7---7---7---7---7---7---0---5---5---5---5---5---5---5---0-0-|
C#|-7---7---7---7---7---7---7---0---5---5---5---5---5---5---5---0-0-|
   And we're turning, to      go     home

d#|-----------------------------------------------------------------|
a#|-----------------------------------------------------------------|
f#|---------7---------------7---------------7---------------7-------|
c#|---------7---------------7---------------5---------------5-------|
g#|-7---7---7---7---7---7---7---0---5---5---5---5---5---5---5---0-0-|
C#|-7---7---7---7---7---7---7---0---5---5---5---5---5---5---5---0-0-|
   And the silence   from   the   side   of   the  car,

d#|-----------------------------------------------------------------|
a#|-----------------------------------------------------------------|
f#|---------7---------------7---------------7---------------7-------|
c#|---------7---------------7---------------5---------------5-------|
g#|-7---7---7---7---7---7---7---0---5---5---5---5---5---5---5---0-0-|
C#|-7---7---7---7---7---7---7---0---5---5---5---5---5---5---5---0-0-|
    Tells me everything and how    we     are.

d#|-----------------------------------------------------------------|
a#|-----------------------------------------------------------------|
f#|---------7---------------7---------------7---------------7-------|
c#|---------7---------------7---------------5---------------5-------|
g#|-7---7---7---7---7---7---7---0---5---5---5---5---5---5---5---0-0-|
C#|-7---7---7---7---7---7---7---0---5---5---5---5---5---5---5---0-0-|
   'Cause there's no more trying to   make   this   alright

d#|-----------------------------------------------------------------|
a#|-----------------------------------------------------------------|
f#|---------7---------------7-------7-------7---7-----7-7-7-7-7-7-7-|
c#|---------7---------------7-------5-------5---5-----5-5-5-5-5-5-5-|
g#|-7---7---7---7---7---7---7---0-0-5---5---5-5-5-----5-5-5-5-5-5-5-|
C#|-7---7---7---7---7---7---7---0-0-5---5---5-5-5-----5-5-5-5-5-5-5-|
    There's no more trying    tonight.

Chorus:
d#|-----------------------------------------------------------------|
a#|-----------------------------------------------------------------|
f#|-7-7-7-7-7-7-7-7---7-7-7-7-7-7-7-7-7-7-7-7-7-7-7---7-7-7-7-7-7-7-|
c#|-7-7-7-7-7-7-7-7---7-7-7-7-7-7-7-5-5-5-5-5-5-5-5---5-5-5-5-5-5-5-|
g#|-5-5-5-5-5-5-5-5---5-5-5-5-5-5-5-7-7-7-7-7-7-7-7---7-7-7-7-7-7-7-|
C#|-0-0-0-0-0-0-0-0---0-0-0-0-0-0-0---------------------------------|

d#|-----------------------------------------------------------------|
a#|-----------------------------------------------------------------|
f#|-7-7-7-7-7-7-7-7---7-7-7-7-7-7-7-7-7-7-7-7-7-7-7---7-7-7-7-7-7-7-|
c#|-5-5-5-5-5-5-5-5---5-5-5-5-5-5-5-5-5-5-5-5-5-5-5---5-5-5-5-5-5-5-|
g#|-5-5-5-5-5-5-5-5---5-5-5-5-5-5-5-5-5-5-5-5-5-5-5---5-5-5-5-5-5-5-|
C#|-5-5-5-5-5-5-5-5---5-5-5-5-5-5-5-5-5-5-5-5-5-5-5---5-5-5-5-5-5-5-|

d#|-----------------------------------------------------------------|
a#|-----------------------------------------------------------------|
f#|-7-7-7-7-7-7-7-7---7-7-7-7-7-7-7-7-7-7-7-7-7-7-7---7-7-7-7-7-7-7-|
c#|-7-7-7-7-7-7-7-7---7-7-7-7-7-7-7-5-5-5-5-5-5-5-5---5-5-5-5-5-5-5-|
g#|-5-5-5-5-5-5-5-5---5-5-5-5-5-5-5-7-7-7-7-7-7-7-7---7-7-7-7-7-7-7-|
C#|-0-0-0-0-0-0-0-0---0-0-0-0-0-0-0---------------------------------|
    And you know it's not so easy when you're all               alone.

d#|-----------------------------------------------------------------|
a#|-----------------------------------------------------------------|
f#|-7-7-7-7-7-7-7-7---7-7-7-7-7-7-7-7-7-7-7-7-7-7-7---7-7-7-7-7-7-7-|
c#|-5-5-5-5-5-5-5-5---5-5-5-5-5-5-5-5-5-5-5-5-5-5-5---5-5-5-5-5-5-5-|
g#|-5-5-5-5-5-5-5-5---5-5-5-5-5-5-5-5-5-5-5-5-5-5-5---5-5-5-5-5-5-5-|
C#|-5-5-5-5-5-5-5-5---5-5-5-5-5-5-5-5-5-5-5-5-5-5-5---5-5-5-5-5-5-5-|
   
d#|-----------------------------------------------------------------|
a#|-----------------------------------------------------------------|
f#|-7-7-7-7-7-7-7-7---7-7-7-7-7-7-7-7-7-7-7-7-7-7-7---7-7-7-7-7-7-7-|
c#|-7-7-7-7-7-7-7-7---7-7-7-7-7-7-7-5-5-5-5-5-5-5-5---5-5-5-5-5-5-5-|
g#|-5-5-5-5-5-5-5-5---5-5-5-5-5-5-5-7-7-7-7-7-7-7-7---7-7-7-7-7-7-7-|
C#|-0-0-0-0-0-0-0-0---0-0-0-0-0-0-0---------------------------------|
    And I wonder  if I'm alone       in your                  head.

d#|-----------------------------------------------------------------|
a#|-----------------------------------------------------------------|
f#|-7-7-7-7-7-7-7-7---7-7-7-7-7-7-7-7-7-7-7-7-7-7-7---7-7-7-7-7-7-7-|
c#|-5-5-5-5-5-5-5-5---5-5-5-5-5-5-5-5-5-5-5-5-5-5-5---5-5-5-5-5-5-5-|
g#|-5-5-5-5-5-5-5-5---5-5-5-5-5-5-5-5-5-5-5-5-5-5-5---5-5-5-5-5-5-5-|
C#|-5-5-5-5-5-5-5-5---5-5-5-5-5-5-5-5-5-5-5-5-5-5-5---5-5-5-5-5-5-5-|

Verse:
d#|-----------------------------------------------------------------|
a#|-----------------------------------------------------------------|
f#|---------7---------------7---------------7---------------7-------|
c#|---------7---------------7---------------5---------------5-------|
g#|-7---7---7---7---7---7---7---0---5---5---5---5---5---5---5---0-0-|
C#|-7---7---7---7---7---7---7---0---5---5---5---5---5---5---5---0-0-|

d#|-----------------------------------------------------------------|
a#|-----------------------------------------------------------------|
f#|---------7---------------7---------------7---------------7-------|
c#|---------7---------------7---------------5---------------5-------|
g#|-7---7---7---7---7---7---7---0---5---5---5---5---5---5---5---0-0-|
C#|-7---7---7---7---7---7---7---0---5---5---5---5---5---5---5---0-0-|
    I know something is wrong,   I just don't know what to do.

d#|-----------------------------------------------------------------|
a#|-----------------------------------------------------------------|
f#|---------7---------------7---------------7---------------7-------|
c#|---------7---------------7---------------5---------------5-------|
g#|-7---7---7---7---7---7---7---0---5---5---5---5---5---5---5---0-0-|
C#|-7---7---7---7---7---7---7---0---5---5---5---5---5---5---5---0-0-|
    You say it's only me and I'm so perfect for you.

d#|-----------------------------------------------------------------|
a#|-----------------------------------------------------------------|
f#|---------7---------------7---------------7---------------7-------|
c#|---------7---------------7---------------5---------------5-------|
g#|-7---7---7---7---7---7---7---0---5---5---5---5---5---5---5---0-0-|
C#|-7---7---7---7---7---7---7---0---5---5---5---5---5---5---5---0-0-|
    I don't want to try no more,   I don't want to make thimgs right

d#|-----------------------------------------------------------------|
a#|-----------------------------------------------------------------|
f#|---------7---------------7-------7-------7---7-----7-7-7-7-7-7-7-|
c#|---------7---------------7-------5-------5---5-----5-5-5-5-5-5-5-|
g#|-7---7---7---7---7---7---7---0-0-5---5---5-5-5-----5-5-5-5-5-5-5-|
C#|-7---7---7---7---7---7---7---0-0-5---5---5-5-5-----5-5-5-5-5-5-5-|
    I just want you to be true to me,        one   time.

Chorus:
d#|-----------------------------------------------------------------|
a#|-----------------------------------------------------------------|
f#|-7-7-7-7-7-7-7-7---7-7-7-7-7-7-7-7-7-7-7-7-7-7-7---7-7-7-7-7-7-7-|
c#|-7-7-7-7-7-7-7-7---7-7-7-7-7-7-7-5-5-5-5-5-5-5-5---5-5-5-5-5-5-5-|
g#|-5-5-5-5-5-5-5-5---5-5-5-5-5-5-5-7-7-7-7-7-7-7-7---7-7-7-7-7-7-7-|
C#|-0-0-0-0-0-0-0-0---0-0-0-0-0-0-0---------------------------------|
    And you know it's not so easy when you're all               alone.

d#|-----------------------------------------------------------------|
a#|-----------------------------------------------------------------|
f#|-7-7-7-7-7-7-7-7---7-7-7-7-7-7-7-7-7-7-7-7-7-7-7---7-7-7-7-7-7-7-|
c#|-5-5-5-5-5-5-5-5---5-5-5-5-5-5-5-5-5-5-5-5-5-5-5---5-5-5-5-5-5-5-|
g#|-5-5-5-5-5-5-5-5---5-5-5-5-5-5-5-5-5-5-5-5-5-5-5---5-5-5-5-5-5-5-|
C#|-5-5-5-5-5-5-5-5---5-5-5-5-5-5-5-5-5-5-5-5-5-5-5---5-5-5-5-5-5-5-|
   
d#|-----------------------------------------------------------------|
a#|-----------------------------------------------------------------|
f#|-7-7-7-7-7-7-7-7---7-7-7-7-7-7-7-7-7-7-7-7-7-7-7---7-7-7-7-7-7-7-|
c#|-7-7-7-7-7-7-7-7---7-7-7-7-7-7-7-5-5-5-5-5-5-5-5---5-5-5-5-5-5-5-|
g#|-5-5-5-5-5-5-5-5---5-5-5-5-5-5-5-7-7-7-7-7-7-7-7---7-7-7-7-7-7-7-|
C#|-0-0-0-0-0-0-0-0---0-0-0-0-0-0-0---------------------------------|
    And I wonder  if I'm alone       in your                  head.

d#|-----------------------------------------------------------------|
a#|-----------------------------------------------------------------|
f#|-7-7-7-7-7-7-7-7---7-7-7-7-7-7-7-7-7-7-7-7-7-7-7---7-7-7-7-7-7-7-|
c#|-5-5-5-5-5-5-5-5---5-5-5-5-5-5-5-5-5-5-5-5-5-5-5---5-5-5-5-5-5-5-|
g#|-5-5-5-5-5-5-5-5---5-5-5-5-5-5-5-5-5-5-5-5-5-5-5---5-5-5-5-5-5-5-|
C#|-5-5-5-5-5-5-5-5---5-5-5-5-5-5-5-5-5-5-5-5-5-5-5---5-5-5-5-5-5-5-|

Bridge:(Strumming changes almost every time)
d#|---------------|---------------|-2--------------|-4-------------|
a#|---------------|---------------|-3--------------|-5-------------|
f#|-7-------------|-9-------------|-2--------------|-6-------------|
c#|-5-------------|-7-------------|-4--------------|-7-------------|
g#|-5-------------|-7-------------|-2--------------|-4-------------|
C#|-5-------------|-7-------------|----------------|---------------|
   12 days...        saw you...       one more...      all my best...

d#|---------------|---------------|-2--------------|-4-------------|
a#|---------------|---------------|-3--------------|-5-------------|
f#|-7-------------|-9-------------|-2--------------|-6-------------|
c#|-5-------------|-7-------------|-4--------------|-7-------------|
g#|-5-------------|-7-------------|-2--------------|-4-------------|
C#|-5-------------|-7-------------|----------------|---------------|
    what could...   so much fun...  without me...    without me...

d#|---------------|---------------|-2--------------|-4-------------|
a#|---------------|---------------|-3--------------|-5-------------|
f#|-7-------------|-9-------------|-2--------------|-6-------------|
c#|-5-------------|-7-------------|-4--------------|-7-------------|
g#|-5-------------|-7-------------|-2--------------|-4-------------|
C#|-5-------------|-7-------------|----------------|---------------|
    take a step...  you ahead...    take a step...   you come back...

d#|---------------|---------------|-2--------------|-4-------------|
a#|---------------|---------------|-3--------------|-5-------------|
f#|-7-------------|-9-------------|-2--------------|-6-------------|
c#|-5-------------|-7-------------|-4--------------|-7-------------|
g#|-5-------------|-7-------------|-2--------------|-4-------------|
C#|-5-------------|-7-------------|----------------|---------------|
    no more...      make this...    no more...       no more...    

d#|---------------|---------------|-2--------------|-4-------------|
a#|---------------|---------------|-3--------------|-5-------------|
f#|-7-------------|-9-------------|-2--------------|-6-------------|
c#|-5-------------|-7-------------|-4--------------|-7-------------|
g#|-5-------------|-7-------------|-2--------------|-4-------------|
C#|-5-------------|-7-------------|----------------|---------------|
   we will never... we will never...we will never... we will never...

d#|---------------|
a#|---------------|
f#|-7-------------|
c#|-5-------------|
g#|-5-------------|
C#|-5-------------|
   you're done.

Well there you have it. That's how you play this awesome song.
or comments.
            
Hard to play? Try these video lessons and learn fast. | Correct




comments powered by Disqus
↑ Back to top | Tablatures and chords are parodies/interpretations of the original songs. You may use it for private study, scholarship, research or language learning purposes only