» » »

Early November, Something That Produces Results Tabs (ver.1)

Artists:  A B C D E F G H I J K L M N O P Q R S T U V W X Y Z # 

Something That Produces Results Tabs (ver.1)

Early November Tabs
 Rating:
4/5 (4 votes)
Something That Produces Results lessons Tabs too difficult? Try these video lessons and learn fast
1
                This is a sweet new song on  their new album(The Rooms Too Cold). Its track

drop d tuning

  Guitar 1 Intro 2x
e|----------------------------------------------|
B|----------------------------------------------|
G|----------------------------------------------|
D|---3-33--6-66--1-11--------3-33--1-11--6-66---|
A|---3-33--6-66--1-11--------3-33--1-11--6-66---|
D|---3-33--6-66--1-11--------3-33--1-11--6-66---|

  Guitar 2 Intro 1x (note: come in after guitar 1 does his part once)
e|-----------------------------------------------------------------------------|
B|-----------------------------------------------------------------4-----------|
G|---8-6-5-3-5-3-3-5~6-6-5-6----------8-6-5-3-5-3-3~1-0h1--0h1-------1-0h1-3---|
D|-----------------------------------------------------------------------------|
A|-----------------------------------------------------------------------------|
D|-----------------------------------------------------------------------------|

Guitar 1 1st Verse 8x
e|----8---|
B|---9-9--|
G|--------|
D|--------|
A|--------|
D|--------|

  Guitar 1 Intro 4x
e|----------------------------------------------|
B|----------------------------------------------|
G|----------------------------------------------|
D|---3-33--6-66--1-11--------3-33--1-11--6-66---|
A|---3-33--6-66--1-11--------3-33--1-11--6-66---|
D|---3-33--6-66--1-11--------3-33--1-11--6-66---|

  Guitar 2 Chorus 2x
e|------------------------|
B|------------------------|
G|---1010---12-12--13-----|
D|---X-X----XX-XX--XX-----|
A|---8-8----10-10--11-----|
D|------------------------|


  Guitar 2 Intro 2x (note: come in after guitar 1 does his part twice)
e|-----------------------------------------------------------------------------|
B|-----------------------------------------------------------------4-----------|
G|---8-6-5-3-5-3-3-5~6-6-5-6----------8-6-5-3-5-3-3~1-0h1--0h1-------1-0h1-3---|
D|-----------------------------------------------------------------------------|
A|-----------------------------------------------------------------------------|
D|-----------------------------------------------------------------------------|

  Guitar 1 Interlude 12x
e|------------------|
B|------------------|
G|------------------|
D|----6-------6-6---|
A|------------------|
D|---6-------6------|

  Guitar 1 Interlude 8x
e|-------------------|
B|---9-3-----9-8-9---|  note: come in after guitar 1
G|-------------------|        does his part 4x
D|-------------------|
A|-------------------|
D|-------------------|

  Guitar 1 Chorus 8x
e|----------------------------------------------|
B|----------------------------------------------|
G|----------------------------------------------|
D|---3-33--6-66--1-11--------3-33--1-11--6-66---|
A|---3-33--6-66--1-11--------3-33--1-11--6-66---|
D|---3-33--6-66--1-11--------3-33--1-11--6-66---|

  Guitar 2 Chorus 4x
e|------------------------|
B|------------------------|
G|---1010---12-12--13-----|
D|---X-X----XX-XX--XX-----|
A|---8-8----10-10--11-----|
D|------------------------|

  Guitar 2 Intro 2x (note: come after you do your other part 4x)
e|-----------------------------------------------------------------------------|
B|-----------------------------------------------------------------4-----------|
G|---8-6-5-3-5-3-3-5~6-6-5-6----------8-6-5-3-5-3-3~1-0h1--0h1-------1-0h1-3---|
D|-----------------------------------------------------------------------------|
A|-----------------------------------------------------------------------------|
D|-----------------------------------------------------------------------------|

This isnt exactly right, but its close.
            
Submit corrections

comments powered by Disqus
↑ Back to top | Early November Tabs for Something That Produces Results. Lyrics for acoustic guitar and electric guitar. 1 Tablatures and chords are parodies/interpretations of the original songs. You may use it for private study, scholarship, research or language learning purposes only